Ads

About That Day (Yosuga no Sora) Guitar Tab

Submitted: Aug 30, 2021 by scarecrowlol (Last updated: Aug 30, 2021)

5
Average: 5 (2 votes)
Download | Listen
Game: Yosuga no Sora
Composer(s): Bruno Wen-Li, Manabu Miwa
Style: Arrangement, Fingerstyle, Pinch harmonics, Tapping

Click here for a video example.

AutoScroll: Slow | Medium | Fast
Title: About That Day
SubTitle: Yosuga No Sora
Artist: Bruno Wen-Li & Manabu Miwa
Tabber: Mitch Jackson
Tempo = 110
T/S = 3/4

Left hand fingering is included in GP file as a guide

--------
LEGEND
--------
T = Tap
^ = Upstroke
v = Downstroke
<?> = Pinch Harmonic
L = Hold Previous Note
Rall = Slow down play speed gradually


   ♪♫•*¨*•.¸¸ CAPO 2 ¸¸.•*¨*•♫♪


     E  E  E  Q.            H.                     E  E  E  Q.            H.    
E |--3--------0----------|--L-------------------|--3--------0----------|--L-------------------|
B |--------1-------------|--L-------------------|--------3-------------|--L-------------------|
G |-----2----------------|--L-------------------|-----0----------------|--L-------------------|
D |--3-------------------|--L-------------------|--2-------------------|--L-------------------|
A |----------------------|----------------------|----------------------|----------------------|
D |----------------------|----------------------|----------------------|----------------------|


     E  E  E  Q.            H.                     E  E  E  Q.            H.
  |--3--------0----------|--L-------------------|--3--------0----------|--L-------------------|
  |--------1-------------|--L-------------------|-----1--3-------------|--L-------------------|
  |-----2----------------|--L-------------------|----------------------|----------------------|
  |--3-------------------|--L-------------------|--2-------------------|--L-------------------|
  |----------------------|----------------------|----------------------|----------------------|
  |----------------------|----------------------|----------------------|----------------------|

                         
     H.                     H           Q          Q     Q     Q          H.  
  |--5-------------------|--------------5-------|--3-------------------|----------------------|
  |--5-------------------|--5-------------------|--0-----3-------------|----------------------|
  |--5-------------------|----------------------|--------------2-------|--0-------------------|
  |----------------------|----------------------|--2-------------------|----------------------|
  |----------------------|----------------------|----------------------|----------------------|
  |--3-------------------|----------------------|----------------------|----------------------|


     H.                     H           Q          Q     Q     Q          H.
  |----------------------|--1-------------------|--------0-----3-------|--L-------------------| 
  |--1-------------------|--1-------------------|--3-------------------|--L-------------------|   
  |--2-------------------|--------------2-------|--0-------------------|--L-------------------| 
  |--0-------------------|----------------------|----------------------|----------------------|  
  |----------------------|----------------------|--3-------------------|--L-------------------|   
  |----------------------|----------------------|----------------------|----------------------|
 
                                            
     H.                     H           Q          E  E  E  E  E  E       H.
  |--5-------------------|--------------5-------|--7--8--7-------------|----------------------|
  |--5-------------------|--5-------------------|-----------8-----0----|----------------------|
  |--5-------------------|----------------------|--7-----------7-------|--0-------------------|
  |----------------------|----------------------|----------------------|----------------------|
  |----------------------|----------------------|--7-------------------|----------------------|
  |--3-------------------|----------------------|----------------------|----------------------|

                                                                          v
     H.                     Q     Q     Q          H.                     H.
  |--1-------------------|--8-----5-------------|----------------------|----------------------|
  |--3-------------------|--6-----------6-------|----------------------|--8-------------------|
  |--2-------------------|----------------------|--7-------------------|--7-------------------|
  |--0-------------------|----------------------|--7-------------------|--7-------------------|
  |----------------------|----------------------|--5-------------------|----------------------|
  |----------------------|----------------------|--5-------------------|----------------------|

 
     Q     Q     Q          Q     E  E  E  E       Q     E  E  E  E       Q     E  E  Q
  |--------0-----3-------|--5-----------3-------|-----------0----------|--0-------------------|
  |----------------------|-----------6-----5----|--3-----0-----1--3----|-----------3--0-------|
  |----------------------|--------5-------------|--0-------------------|--------4-------------|
  |----------------------|--3-------------------|--2-------------------|--5-------------------|
  |----------------------|----------------------|----------------------|----------------------|
  |----------------------|----------------------|----------------------|----------------------|

   
     E  E  Q     E  E       E  E  E  E  E  E       E  E  E  E  E  E       E  E  Q     Q
  |--------0-------------|--0-----1--------0----|--------0--3----------|--5-----------3-------|
  |--1--1--------1--3----|-----1--------1-------|--3--0--------1--3----|--5-----6-------------|
  |--2-------------------|-----------2----------|----------------------|-----5----------------|
  |----------------------|--0-------------------|--2-------------------|--3-------------------|
  |----------------------|----------------------|----------------------|----------------------|
  |----------------------|----------------------|----------------------|----------------------|

     
     E  E  E  E  Q          Q     E  E  E  E       E  E  Q     E  E       E  E  E  E  Q
  |--4-----5-----7-------|--5-----------3-------|--3-----0-------------|--0-----3-------------|
  |-----0--3--5----------|-----------6-----5----|--3--0--------1--3----|-----3-----3--0-------|
  |----------------------|--------5-------------|----------------------|--0-------------------|
  |--2-------------------|--3-------------------|--2-------------------|----------------------|
  |----------------------|----------------------|----------------------|----------------------|
  |----------------------|----------------------|----------------------|----------------------|

                                             
     E  E  H                E  E  Q     Q          E  E  Q     Q          E  E  Q     Q
  |-----0--3-------------|--5-------------------|--------0-----3-------|--5-----7-----8-------|
  |--1-------------------|--------0-----1-------|--3-------------------|----------------------|
  |--2-------------------|-----2----------------|-----4----------------|----------------------|
  |----------------------|--0-------------------|--2-------------------|-----7----------------|
  |----------------------|----------------------|----------------------|--8-------------------|
  |----------------------|----------------------|----------------------|----------------------|

                                            
     E  E  Q     Q          E  E  E  E  E  E       H.                     E  E  E  E  E  E
  |--10----7-------------|--5-------------------|--5-------------------|-----------------3----|
  |-----0--------9-------|-----------------5----|----------------------|--------------3-------|
  |----------------------|--------------5-------|----------------------|-----------4----------|
  |----------------------|--------3--7----------|----------------------|--------2-------------|
  |--7-------------------|-----3----------------|----------------------|-----2----------------|
  |----------------------|--3-------------------|----------------------|--2-------------------|

     T                                                   P.H------->
     H.                     E  E  E  E  E  E       E  E  E  E  E  E       H.
  |--7-------------------|----------------------|-----6----------<6>---|--L-------------------|
  |----------------------|-----------------6----|--8-------<6><8>------|--L-------------------|
  |----------------------|--------0--3--7-------|-------<7>------------|--L-------------------|
  |----------------------|-----1----------------|----------------------|----------------------|
  |----------------------|----------------------|----------------------|----------------------|
  |----------------------|--1-------------------|----------------------|----------------------|

                                                               Rall----------------->
                                                   ^                           P.H-->
     E  E  E  Q.            E  E  E  Q.            H           E  E       E  E  E  Q.
  |--8--5----------------|--4-------------------|--0--------------0----|--3--7-<0><3>---------|
  |--------6-------------|-----6----------------|--0-----------0-------|----------------------|
  |-----------7----------|--------6--4----------|--0-------------------|----------------------|
  |--0-------------------|----------------------|----------------------|----------------------|
  |----------------------|--4-------------------|--3-------------------|----------------------|
  |----------------------|----------------------|----------------------|----------------------|


     H.
  |--L-------------------||
  |--L-------------------||
  |--L-------------------||
  |----------------------||
  |--L-------------------||
  |----------------------||
Login or Register to remove this ad.