Ads

Theme (Yoshi's Story) Guitar Tab

Submitted: Oct 30, 2010 by bubblingbeebles

5
Average: 5 (9 votes)
Download | Listen
Game: Yoshi's Story
Composer(s): Kazumi Totaka
Style: Arrangement, Fingerstyle

AutoScroll: Slow | Medium | Fast
Yoshi's Story Theme
Composed by Kazumi Totaka
Arranged by bubblingbeebles
Summer 2009

e-----------------|------------------|-0------2--0-2---|--0--------------|----------------|
B-----------------|------------------|-----------------|-----------------|-2-----3-2-3----|
G-----------------|------------------|-----------------|-----------------|-2--------------|
D----2-----2-2----|----2-----2-2-----|----2------2-2---|----2-----2-2----|---2-----2-2----|
A--0-----0--------|--0-----0---------|-0------0--------|--0-----0--------|-0-----0--------|
E------0-------0--|------0--------0--|------0--------0-|------0-------0--|-----0-------0--|

|-----------------|-0-----2--0-2-----|--0--------------|-----------------|----------------|
|-2---------------|------------------|---------3-2-3---|-2------0----0---|----------------|
|-----------------|------------------|-----------------|-----------2-----|-2--------------|
|---2-----2-2-----|---2------2-2-----|-----2-----2-2---|---2-------2-2---|---2-----2-2----|
|-0-----0---------|-0-----0----------|--0------0-------|-0------0--------|-0-----0--------|
|-----0--------0--|-----0--------0---|-------0-------0-|-----0---------0-|-----0--------0-|

|-0---------------|-0----------------|--0--------------|-0---------------|----------------|
|-02--------2-----|-2--------2-------|--------2--------|----3--2---3-----|--3-------------|
|-------2---------|------2-----------|-----2-----------|-----2---2----2--|------2--2------|
|----2--------0---|----2-------2-----|----2------2-----|----2------2-----|----2------2----|
|-0-------0-------|-0-----0----------|--0---0----------|-0-----0---------|--0------0------|
|-----------------|------------------|-----------------|-----------------|----------------|

|-----------------|------------------|-----------------|------------------|---------------|
|-3-------3-------|-3-------3--------|-3-2----0---2----|--2-----2--2----2-|--2-------2----|
|-----2-----------|-----2------------|------2----2--2--|------2-------2---|------2--------|
|---2-------2-----|---2-------2------|---2-------------|----2----2---2---2|----2-------2--|
|-0-----0---------|-0-----0----------|-0------0--------|--0----0---0---0--|--------0------|
|-----------------|------------------|-----------------|------------------|---------------|

|-----------------|------------------|-----------------|-----------------|----------------|
|--2-0-----0------|--0------0--------|-0-------0-------|-0---------------|----------------|
|----2-2----------|-----2---2--------|-----2---2-------|------2--2-------|--2----1--1-----|
|--2-----2--------|----2------2------|----2------2-----|----2------2-----|----------------|
|------0----------|--0----0----------|-0-----0---------|-0----0----------|--0-------0-----|
|-----------------|------------------|-----------------|--------------0--|------------0---|

|--0------2-0-2---|-0----------------|-----------------|-----------------|--0----2-0-2----|
|-----------------|------------------|--2------3-2-3---|-2---------------|----------------|
|-----------------|------------------|--2--------------|-----------------|----------------|
|-----2-----2-2---|---2-------2--2---|----2------2-2---|---2-----2-2-----|----2----2-2----|
|--0------0-------|-0------0---------|--0------0-------|-0-----0---------|--0----0--------|
|-------0-------0-|-----0----------0-|------0--------0-|-----0--------0--|------0------0--|

|-----------------|------------------|--0---0--0--0----|
|--3-2-3----2-----|-0-----0----------|--2---2--0--2----|
|-----------------|----2-------------|--2---2--0--2----|
|----0-2-------2--|----2-------------|--2---2--0--2----|
|--0--------0-----|-0----------------|--0---0--0--0----|
|--------0-------0|----------0-------|-----------------|
Login or Register to remove this ad.

8 comments on Theme

Sweet. :3

Sweet. :3

OMG

5

Wow man i remeber when i was kid playin this that was like 4 years bak this song was one i always wanted in fingerstyle style nice job man

Yes.

Awesome arrangement

ok i have a question exactly

ok i have a question exactly what is arrangement? im a noob i know :p

"An arrangement is an

"An arrangement is an interpreted variation of a song" - archard

A transcription is a when the tab follows the original song exactly. In an arrangement you can change some notes to add your own personal touch to the song.

ooooooo ok i got it thanks

ooooooo ok i got it thanks for that much appreciated :D

another question how do i

5

another question how do i play these kinds of tabs?

This game

5

This game scared me so much as a kid, you know, the yoshis DYING OF DEPRESSION and all.