Ads

Café Alpha Whistle (Yokohama Kaidashi Kikou) Guitar Tab

Submitted: Jan 14, 2014 by tomorning

5
Average: 5 (2 votes)
Download | Listen
Game: Yokohama Kaidashi Kikou
Composer(s): Choro Club
Style: 2 or more instruments, Fingerstyle, Transcription

AutoScroll: Slow | Medium | Fast
                                  Cafe Alpha Kuchibue
                          ~ from anime "Yokohama Kaidasi Kikou" ~


Music by Choro club
tabber by to*morning

Standard Tuning (E A D G B E) 


x = "base" or "open" or "passing" note

  Q=94(8=s8)
 4/4
  Melody ( Original : Mouth Whistle)
|-------------------------|-------------------|----------------|----------------------||
|-------------------------|-------------------|----------------|---------------3-3-4--||
|-------------------------|-------------------|----------------|----------------------||
|-------------------------|-------------------|----------------|----------------------||
|-------------------------|-------------------|----------------|----------------------||
|-------------------------|-------------------|----------------|----------------------||
|
| Gtr (Standard Tuning)
|-12----------12----------|-^12-10-----8---8---|-7--7---7-7---3-|-------^0--------------||
|-------12----------11----|-^10--------9---9---|-7--7---7-7---5-|---4-3-^3--------------||
|----12----------11-------|-^10--------7---7---|-6--6---5-5---4-|---3-2-^1--------------||
|-11-------11-10-------10-|-^-9----------------|-7----------0---|---2-1-^2--------------||
|-------------------------|--------10----7---7-|------0-5-------|-----------------------||
|-------------------------|--------------------|----------------|-x-2-1-^0--------------||



||-------------7---|-5--------4-3-2-|-0--------------2-|-0---------------|
||o-5--------7---7-|----------------|------------3-0---|----------3-3-4--|
||-----------------|----------------|------------------|-----------------|
||-----------------|----------------|------------------|-----------------|
||o----------------|----------------|------------------|-----------------|
||-----------------|----------------|------------------|-----------------|
|
|
||-----------------|----------------|------------------|-----------------|
||o-5--5---5---5---|-3--3---2---2---|-5--5----5----5---|-3--3---3---3----|
||--5--5---5---5---|-4--4---0---0---|-5--5----3----3---|-4--4---4---4----|
||--5--5---4---4---|-4--4-----------|-5--5----4----4---|-4----x-2-----0--|
||o-0----0-5-----0-|-x----0-1---1-x-|-0----x--5------0-|-----------------|
||-----------------|----------------|------------------|-----------------|


                                  /1.----------------------------------

|----------5-----|-4----------0-4-|-2------------2-|--0----------------||
|-5----------2-4-|----------2-----|------------1---|-----------3-3-4--o||
|----------------|----------------|----------1-----|-------------------||
|----------------|----------------|----------------|-------------------||
|----------------|----------------|----------------|------------------o||
|----------------|----------------|----------------|-------------------||
|
|
|----------------|----------------|----------------|--------4----------||
|-5--5---2---2---|-4--4-------5---|-7--7---4---4---|-^5---------------o||
|-5--5---2---2---|-1--1---6---6---|-6--6---5---5---|-^4---4------------||
|-5--5-----------|-4--4---6---6---|-6--6---4---4---|-^6-6--------------||
|-0----0-2---2---|--------0---0-x-|-6----0-------0-|-^4---------------o||
|----------------|-0----0---------|--------4-------|-------------------||


/ 2.-------------

|-2------------2-|-1--------------||
|------------1---|----------------||
|----------1-----|----------------||
|----------------|----------------||
|----------------|----------------||
|----------------|----------------||
|
|
|------------4---|-------------4--||
|-7--7-----4-----|-------4--------||
|-6--6---5-------|-----5---3------||
|-6--6---4-------|---3-------3----||
|-6----0---------|-4--------------||
|--------4-------|----------------||


                               |-3-|          |-3-|
|--------1------|------------------1-|-6------------|-4-------------------|
|-4----------1--|-2--------1-----2---|--------1-2-4-|---------------------|
|---------------|--------3-----------|--------------|---------------------|
|---------------|--------------------|--------------|---------------------|
|---------------|--------------------|--------------|---------------------|
|---------------|--------------------|--------------|---------------------|
|
|                                                         |-3-|     |-3-|
|-----3------1--|-----1----1---------|-2--2-------4-|---------4-----------|
|-----4----3----|---2------2---------|-4--4-----4---|-------4-----4-------|
|-----3----2----|---1------1---------|-3--3---5-----|-----3-------3-------|
|---5-----------|---3----------------|-1------------|---3-----------------|
|-3-------------|-1------1----1------|------0-------|-4---------4---0-----|
|--------1------|--------------------|--------4-----|-----------------4-3-|


     
|-2-------------2-|-0-----------2------|-------------------|----------------|
|-----------5-4---|-----------------2--|-5-----------------|-3--------------|
|-----------------|--------------------|-------------------|----------------|
|-----------------|--------------------|-------------------|----------------|
|-----------------|--------------------|-------------------|----------------|
|-----------------|--------------------|-------------------|----------------|
|
|                   |-3-| |-3-|              |-3-| 
|-----------------|-----------0--------|-----0---------5---|----------5-----|
|-------2---------|---------0-----2----|---3---------5-----|-5--5---5-------|
|-----2-----2-----|-------0-------0----|-------------4-----|-6--6---4-------|
|---4-------4-----|-----4--------------|-0-----------3-----|-4--4---3----0--|
|---------2-----2-|---2---------0---0--|-------------------|-5----0---------|
|-2---------------|-0------------------|-------5-4-3-----3-|--------3-------|


                                |--3---|           |---3---|             |---3---|
|-------------1--|---------------------1-|-6-------------------|-4-------------------|
|-4-------1------|-2---------1-----2-----|---------1---2---4---|-------------0-------|
|----------------|---------3-------------|---------------------|---------3-------2---|
|----------------|-----------------------|---------------------|---------------------|
|----------------|-----------------------|---------------------|---------------------|
|----------------|-----------------------|---------------------|---------------------|
|
|
|-----3----------|-----------1-----------|-----2-------------4-|-----4---------------|
|-4--------------|-------2---------------|---2-----------4-----|---5-----------2-----|
|-3---------2----|-----1---3-------------|---3-------5---------|---4-------3-------3-|
|---5-------1----|---3---------------0---|-1---------4---------|---6-------2---------|
|-3-----------0--|-1---------------------|---------------------|-4-----4-------------|
|-------x-1------|--------------1--------|-------0-4-----------|---------2-----------|


          |---3---|
|-2------------------|-----------------|-------------------||
|--------------------|-5---------------|-------------3-3-4-||
|---------1---2---4--|-----------------|-------------------||
|--------------------|-----------------|-------------------||
|--------------------|-----------------|-------------------||
|--------------------|-----------------|-------------------||
|
|
|-----2---------0----|---------5-------|-------5-----------||
|---3---------3------|-------3-------3-|-------3-----------||
|---2-------1--------|-----4-------4---|-----4-------------||
|---4----------------|---5-------5-----|---5---------------||
|-2-----2------------|-0---------------|-0-----------------||
|---------0----------|---------0-------|-------------------||



|------------7---|-5--------4-3-2-|-0--------------2-|-0----------------|
|-5--------7---7-|----------------|------------3-0---|----------3-3-4---|
|----------------|----------------|------------------|------------------|
|----------------|----------------|------------------|------------------|
|----------------|----------------|------------------|------------------|
|----------------|----------------|------------------|------------------|
|
|
|----------------|----------------|------------------|------------------|
|-5--5---5---5---|-3--3---2---2---|-5--5----5----5---|-3--3---3---3-----|
|-5--5---5---5---|-4--4---0---0---|-5--5----3----3---|-4--4---4---4-----|
|-5--5---4---4---|-4--4-----------|-5--5----4----4---|-4----x-2-----0---|
|-0----0-5-----0-|--------1-----1-|-0----0--5------0-|------------------|
|----------------|-3----3---------|------------------|------------------|



|----------5-----|-4-----------0----4---|-2------------2-|-1--------------||
|-5----------2-4-|----------2-----------|------------1---|----------------||
|----------------|----------------------|----------1-----|----------------||
|----------------|----------------------|----------------|----------------||
|----------------|----------------------|----------------|----------------||
|----------------|----------------------|----------------|----------------||
|
|                              |--3---|
|----------------|----------0-----------|----------------|-------------4--||
|-5--5---2---2---|-4--4---2-------------|-7--7-----4-----|-------4--------||
|-5--5---2---2---|-1--1---4-------2-----|-6--6---5-----5-|-----5---3------||
|-5--5-----------|-4--4---------------2-|-6--6---4---4---|---3-------3----||
|-0----0-2---2---|--------0----0--------|-6----0-----6---|-4--------------||
|----------------|-0----0---------------|--------4-------|----------------||


                                   |-3-|          |---3---|
|-----------1-------|------------------1-|-6----------------|-4----------------|
|-4-------------1---|-2--------1-----2---|--------1---2---4-|------------------|
|-------------------|--------3-----------|------------------|------------------|
|-------------------|--------------------|------------------|------------------|
|-------------------|--------------------|------------------|------------------|
|-------------------|--------------------|------------------|------------------|
|
|     |-3-|
|---------3-------1-|-----1----1---------|-2--2---------4---|-----------4------|
|-------4-------3---|---2------2---------|-4--4-----4-------|-------4----------|
|-----3-------2-----|---1------1---------|-3--3---5---------|-----3------------|
|---5---------------|---3----------------|-1----------------|---3--------------|
|-3-----------------|-1------1----1------|------0-----------|-4-------4--------|
|-----------1-------|--------------------|--------4---------|-------------4-3--|



|-2-------------2-|-0-------2-2----|---------------|---------------|
|-----------5-4---|-------------2--|-5-------------|-3-------------|
|-----------------|----------------|---------------|---------------|
|-----------------|----------------|---------------|---------------|
|-----------------|----------------|---------------|---------------|
|-----------------|----------------|---------------|---------------|
|
|
|-----------------|-------0--------|---------------|----------3----|
|-------2---------|-----0-----2----|-5--5---5--5---|-5--5---5------|
|-----2-----2-----|-----0-----0----|-6--6---4--4---|-6--6---4------|
|---4-------4-----|---4------------|-4--4---3--3---|-4--4---3----0-|
|---------2-----2-|---------0---0--|-5----0------0-|-5----0--------|
|-2---------------|-0--------------|--------3------|--------3------|


                                |--3---|           |---3---|             |---3---|
|---------1------|---------------------1-|-6-------------------|-4-------------------|
|-4-----------1--|-2---------1-----2-----|---------1---2---4---|-------------0---2---|
|----------------|---------3-------------|---------------------|---------3-----------|
|----------------|-----------------------|---------------------|---------------------|
|----------------|-----------------------|---------------------|---------------------|
|----------------|-----------------------|---------------------|---------------------|
|
|
|-----3----------|-----------1-----------|-----2-------------4-|-----4---------------|
|-4--------------|-------2---------------|---2-----------4-----|---5-----------2-----|
|-3---------2----|-----1---3-------------|---3-------5---------|---4-------3-------3-|
|---5-------1----|---3---------------0---|-1---------4---------|---6-------2---------|
|-3-----------0--|-1---------------------|---------------------|-4-----4-------------|
|-------x-1------|--------------1--------|-------0-4-----------|---------2-----------


          |-3-|
|-2---------------|-----------------|-------------------||
|-----------------|-5---------------|-------------3-3-4-||
|---------1-2-4---|-----------------|-------------------||
|-----------------|-----------------|-------------------||
|-----------------|-----------------|-------------------||
|-----------------|-----------------|-------------------||
|
|
|-----2---------0-|---------5-------|-5-----5-----------||
|---3---------3---|-------3-------3-|-------3-----------||
|---2-------1-----|-----4-------4---|-----4-------------||
|---4-------------|---5-------5-----|---5---------------||
|-2-----2---------|-0---------------|-0-----------------||
|---------0-------|---------0-------|-------------------||



|------------7---|-5--------4-3-2-|-0--------------2-|-0--------------|
|-5--------7---7-|----------------|------------3-0---|----------3-3-4-|
|----------------|----------------|------------------|----------------|
|----------------|----------------|------------------|----------------|
|----------------|----------------|------------------|----------------|
|----------------|----------------|------------------|----------------|
|
|
|----------------|----------------|------------------|----------------|
|-5--5---5---5---|-3--3---2---2---|-5--5----5----5---|-3--3---3---3---|
|-5--5---5---5---|-4--4---0---0---|-5--5----3----3---|-4--4---4---4---|
|-5--5---4---4---|-4--4-----------|-5--5----4----4---|-4----x-2-----0-|
|-0----0-5-----0-|--------1---1-x-|-0----x--5------0-|----------------|
|----------------|-3----3---------|------------------|-3--------------|



|-------------5-----|-4-----------0---4-|-2-------------2-|-0---------------||
|-5-------------2-4-|-----------2-------|-------------1---|-----------5-5-6-||
|-------------------|-------------------|-----------1-----|-----------------||
|-------------------|-------------------|-----------------|-----------------||
|-------------------|-------------------|-----------------|-----------------||
|-------------------|-------------------|-----------------|-----------------||
|
|     |-3-|
|-0-------------2---|-----0-------0-----|-----6-------4---|---------4-------||
|-1---1-----0-----3-|---4-------2-------|---7-------4-----|-------5---5-5-4-||
|-0-0---2-3---2-----|---1-------1-------|---6-------5-----|-----4-----4-4-3-||
|-------------4-----|---4---------------|-----------4---0-|---6-------6-6-5-||
|-0---------2-------|---------0-----0---|-6-----0---------|-4---------4-4-3-||
|-------------------|-0-----4-----------|---------4-------|-----------------||



|------------9---|-7-------------6-5-4-|-2---------------4-|-2---------------|
|-7--------9---9-|---------------------|-------------5-2---|-----------5-5-6-|
|----------------|---------------------|-------------------|-----------------|
|----------------|---------------------|-------------------|-----------------|
|----------------|---------------------|-------------------|-----------------|
|----------------|---------------------|-------------------|-----------------|
|
|                  |-3-| |-3-|
|----2-----2-----|-------0---------0---|-----2---------2---|-----------------|
|-3--3---1-------|-----2---2-----4-----|---3------1--------|-----2-------3---|
|-2--2---1-----1-|---1-------1---2-----|---2------1------1-|-----1-------3---|
|----------------|---------------4---4-|---4---0-----------|---2-------2-----|
|-2--2-2-----2---|-0-----------3-------|-2-----------------|-0-----0-3-----3-|
|--------0-------|---------------------|----------0--------|-----------------|



|-----------7---5---|-4------------3-|-2-----------0---3--||
|-7-----------4-----|------------2---|---------------0----||
|-------------------|----------2-----|--------------------||
|-------------------|----------------|--------------------||
|-------------------|----------------|--------------------||
|-------------------|----------------|--------------------||
|
|     |-3-|
|-----2-------------|--------4---3---|-2-------------0----||
|-3-----------------|----2---4-------|-------3-^1---------||
|-2-----4-5-6---6---|-2--2-----2---2-|-2---2---^1---------||
|---4---------3-----|-2--2-0---------|---4-----^0---------||
|-2---------4-----4-|--------2---2---|-2------------------||
|-------------------|-2--------------|---------^0---------||



|-2--------------|-----------------|----------------|-------------------|
|----------------|-----------------|----------------|-------------------|
|----------------|-----------------|----------------|-------------------|
|----------------|-----------------|----------------|-------------------|
|----------------|-----------------|----------------|-------------------|
|----------------|-----------------|----------------|-------------------|
|
|                                                                |-3-|
|-----0----------|-----0-------0---|-----0-----0----|------------0------|
|---2---2---2----|---3---3---3---3-|---2---2--------|---3------3---3----|
|---1-------1----|---4-------4-----|---1---1--------|---4------4-----0--|
|----------------|---4-------4-----|----------------|---4--4---4--------|
|-0-----------0--|-----------------|-0-----------0--|-------------------|
|---------0------|-3-------3---3---|---------0------|-3------3---3------|


|----------------|---------------|----------------|---------------|
|----------------|---------------|----------------|---------------|
|----------------|---------------|----------------|---------------|
|----------------|---------------|----------------|---------------|
|----------------|---------------|----------------|---------------|
|----------------|---------------|----------------|---------------|
|
|
|-----0----------|------0-----0--|-----0-------0--|------------0--|
|---2---2---2----|---3------3----|---2---2---2----|---3------3----|
|---1-------1----|---4------4----|---1---1---1----|---4--4---4----|
|----------------|---4------4----|----------------|---4------4----|
|-0-----------0--|---------------|-0-----------0--|---------------|
|---------0------|-3------3---3--|---------0------|-3------3---3--|



|---------------------|---------------|----------------|-------------------|
|---------------------|---------------|----------------|-------------------|
|---------------------|---------------|----------------|-------------------|
|---------------------|---------------|----------------|-------------------|
|---------------------|---------------|----------------|-------------------|
|---------------------|---------------|----------------|-------------------|
|
| |-3-| |-3-|                                                       |-3-|
|-------0---------0---|---------------|-----0----------|-------------------|
|-----2---2-----2---2-|---3------3----|---2---2---2----|---3------3-----3--|
|---1-------1---1-----|---4--4---4-4--|---1-------1----|---4------4---4----|
|---------------------|---4------4----|----------------|---4--4---4-4------|
|-0---------------0---|---------------|-0-----------0--|-------------------|
|-------------0-------|-3------3---3--|---------0------|-3------3---3------|



|----------------|----------------|----------------|----------------|
|----------------|----------------|----------------|----------------|
|----------------|----------------|----------------|----------------|
|----------------|----------------|----------------|----------------|
|----------------|----------------|----------------|----------------|
|----------------|----------------|----------------|----------------|
|
|
|-----0----------|--------------0-|-----0----------|----------------|
|---2-------2----|---3--------3---|---2-------2----|---3------3-----|
|---1-------1----|---4------4-----|---1-------1----|---4------4-----|
|-------4--------|---4--4---------|-------4--------|---4--4---4-----|
|-0-----------0--|----------------|-0-----------0--|--------------4-|
|---------0------|-3------3---3---|---------0------|-3------3---3---|


                                                     (8s=8s)
                                                      rit...............
|----------------|----------------|------------------|-----------------|
|----------------|----------------|------------------|-----------------|
|----------------|----------------|------------------|-----------------|
|----------------|----------------|------------------|-----------------|
|----------------|----------------|------------------|-----------------|
|----------------|----------------|------------------|-----------------|
|
|                                                     decrecend>>>>>>>>>
|-----0----------|-----0-------0--|-----0-----0------|-----------------|
|---2-------2----|---3-------3----|---2----------2---|---------3-------|
|---1---1---1----|---4-------4----|---1----------1---|-----4-----4---4-|
|----------------|---4---4---4----|-------4----------|---4---4-----4---|
|-0-----------0--|----------------|-0----------------|-----------------|
|---------0------|-3-------3---3--|---------0--------|-3---------------|


.....                    fermete
|-----------------------|--------*|
|-----------------------|--------*|
|-----------------------|--------*|
|-----------------------|--------*|
|-----------------------|--------*|
|-----------------------|--------*|
|
|>>>>>>>>>>>>>>>>>>>>>> (softly)
|-----------0-----------|-<5>----*|
|-------2-----2-------2-|--------*|
|-----4---4-----4---4---|--------*|
|---6-------------6-----|--------*|
|-0---------------------|--------*|
|-----------------------|--------*| fine.

Login or Register to remove this ad.