Ads

The People (Yggdra Union) Bass/Guitar Tab

Submitted: Sep 16, 2009 by xuwawa (Last updated: Apr 05, 2010)

0
Download | Listen
Game: Yggdra Union
Composer(s): Minako Adachi
Style: 2 or more instruments, Transcription

AutoScroll: Slow | Medium | Fast
Game: Yggdra Union
Track: #47 "The People" 
Composer: Minako Adachi 
Transcriber: Randall Stephens
[ xuwawa on GameTabs.net ]
[ xuwawa at gmail ]
13 Sept 2009

A Major scale, 4/4 time, 220 bpm (or thereabouts)
4 bars, totaling ~4.35 seconds, repeated for ev er

   melody
e|12--10-9-----9-|-9-------------|---------------|---------------|
b|--------10-----|----12------12-|10---9-------9-|12--10------10-|
g|---------------|--------11-----|--------11-----|---------9-----|
d|---------------|---------------|---------------|---------------|
a|---------------|---------------|---------------|---------------|
E|---------------|---------------|---------------|---------------|
 |               |               |               |               |
 | x   x   x   x | x   x   x   x | x   x   x   x | x   x   x   x |
 | strings       |               |               |               |
e|12-------------|14-------------|---------------|---------------|
b|---------------|---------------|15-------------|12------14-----|
g|---------------|---------------|---------------|---------------|
d|---------------|---------------|---------------|---------------|
a|---------------|---------------|---------------|---------------|
E|---------------|---------------|---------------|---------------|
 |               |               |               |               |
 | x   x   x   x | x   x   x   x | x   x   x   x | x   x   x   x |
 | staccato strings              |               |               |
e|-----0---0-----|---------------|---------------|---------------|
b|-----2---2-----|-----0---0-----|---------------|---------------|
g|-----2---2-----|-----2---2-----|-----2---2-----|-----2---2-----|
d|---------------|-----4---4-----|-----4---4-----|-----2---2-----|
a|---------------|---------------|-----5---5-----|-----4---4-----|
E|---------------|---------------|---------------|---------------|
 |               |               |               |               |
 | x   x   x   x | x   x   x   x | x   x   x   x | x   x   x   x |
 | bass          |               |               |               |
g|---------------|---------------|---------------|---------------|
d|-4-----------4-|---------------|---------------|---------------|
a|---------------|-5-----------5-|---------------|-4-----------4-|
e|---------------|---------------|-7-----------7-|---------------|
 |               |               |               |               |
 | woodblock!    |               |               |               |
 |     * * *     |     *       * |     * * *     |     *       * |

Login or Register to remove this ad.