Ads

Sorrow (Xenosaga) Guitar Tab

Submitted: Aug 05, 2015 by thedstring

5
Average: 5 (6 votes)
Download | Listen
Game: Xenosaga
Composer(s): Yasunori Mitsuda
Style: Arrangement, Fingerstyle
Series: Xeno

AutoScroll: Slow | Medium | Fast
Xenosaga - Sorrow
Composer - Yasunori Mitsuda
Arranger - Nate Brooks (thedstring)

Capo fret 4
Standard tuning


E |-----------|----------|-------------|-------------|-------------|----------------------|
B |---0-------|--0-------|--0----------|-------------|-------------|----------------------|
G |*--0-------|--0-------|--0--2-------|--2-----0----|--0----------|----------------------|
D |*--2-------|--0-------|--------2----|--2----------|--0--0--2----|--3-----------2--0----|
A |-----------|----------|--4----------|--3----------|--2-----1----|--0-------------------|
E |-----------|----------|-------------|-------------|-------------|----------------------|


----------|------------------|--0-----------7-------|--2-----------7-------|--7-----5-----0-------|
----------|------------------|-----0-----0-----0----|-----0-----0-----0----|-----0-----0-----0----|
----------|------------------|-----0-----0-----0----|-----0-----0-----0----|-----0-----0-----0----|
----------|--1---------------|--------2-------------|--0-----0-------------|----------------------|
--2-------|--2----------2----|----------------------|----------------------|--4-------------------|
----------|--2---------------|--0-------------------|----------------------|----------------------|


--5-----------3-------|--3-----------0-------|--1-----------0-------|--------------0--2----|-------|
-----------0----------|--------0--3----------|-----------------3----|--0--------0----------|--0----|
--------0--------2----|-----0-----------0----|--------0--2----------|----------------------|-------|
-----2----------------|-----------------3----|-----3----------------|-----2--4-------------|--1----|
--3-------------------|--2-----------1-------|--0-------------------|--2-------------------|--2----|
----------------------|----------------------|----------------------|----------------------|--2----|


--0-----2-----3-------|--5-----3-----2-------|--0-----7-----5-------|--5-----7-------------|
-----0-----0-----0----|-----0-----0-----0----|-----0-----0-----0----|-----0-----0-----0----|
--0-------------------|----------------------|--0-------------------|----------------------|
--------4-----2-------|--1-----2-----4-------|--------4-------------|--------------7-------|
----------------------|----------------------|--------------6-------|--7-----6-------------|
----------------------|----------------------|----------------------|----------------------|


--0-----2-----3-------|--5-----3-----2-------|--0-----2-------------|--0--------------------------|
-----0-----0-----0----|-----0-----0-----0----|-----0-----0--4-------|-----------------------------|
--0-------------------|----------------------|--0--------------4----|-----------------------------|
--------4-----2-------|--1-----2-----4-------|--------4-----1-------|--2---------------------0----|
----------------------|----------------------|----------------------|---------------2-----3-------|
----------------------|----------------------|----------------------|-----------------------------|


----------------------|----------------------|----------------------|-------------------|
----------------------|--------0-----1-------|--1-----3-----0-------|--1-----0----------|
--------------0-------|--2--------------2----|-----------2-----0----|--------------0----|
--2-----4--------2----|-----------3----------|-----2----------------|-----------0-------|
--3--------3----------|-----3----------------|--0-------------------|-----2-------------|
-----3----------------|--1-------------------|----------------------|--3----------------|


----------------------|----------------------|----------------------|--0----------|
----------------------|----------------------|--0--------0----------|--0----------|
--------0-----2-------|--2-----0--------0----|--2-----2-----2-------|--1----------|
--3--------3-----0----|-----3--------3-------|-----2-----------2----|-------------|
-----0----------------|--2--------2----------|----------------------|-------------|
----------------------|----------------------|--0-------------------|--0----------|


--5----------|--3----------|--1-----0----|--0-------------------|----------------------|
-------------|-------------|-------------|-----------0--1-------|--------------0-------|
--2-----0----|--0----------|--2--0-------|--------2--------2----|--2--------2-----0----|
--3----------|--------2----|--0----------|-----2----------------|--------3-------------|
-------------|--3----------|-------------|--0-------------------|-----3----------------|
--1----------|-------------|-------------|----------------------|--1-----------3-------|


----------------------|--0-------------------|----------------------|-------------||
--1-----------3-------|-----------0----------|--4--------4----------|-------------||
--------2--------2----|--------2-----2-------|--------4-----4-------|------------*||
-----2-----2--0-------|-----2-----------2----|-----4-----------4----|------------*||
--0-------------------|----------------------|--2-------------------|--2----------||
----------------------|--0-------------------|----------------------|-------------||
Login or Register to remove this ad.