Pain - Piano Version (Xenosaga) Guitar Tab

Submitted: Apr 18, 2009 by Kabukibear (Last updated: Nov 27, 2009)

5
Average: 5 (8 votes)
Download | Listen
Game: Xenosaga
Composer(s): Yasunori Mitsuda
Style: Arrangement, Fingerstyle
Series: Xeno

AutoScroll: Slow | Medium | Fast
Pain - Piano Version                               
~Xenosaga Episode I~
Composed by: Yasunori Mitsuda
Arranged by: Justin Lincoln

Drop D Tuning 
(Capo 2)

Slowly

     E  E  E  E     E  E  E  E     E  E  E  E     E  E  S S E     E  E  E  E   
E||--2-----2-----|--0-----0-----|--------------|----------0----|--2-----2-----|
B||--3-----3-----|--0-----0-----|--3-----3-----|--3-----3------|--3-----3-----|
G||-----2-----2--|-----2-----2--|--4-----4-----|--4-----4------|-----2-----2--|
D||--0-----------|--------------|-----4-----4--|-----0------0--|--0-----------|
A||--------------|--4-----------|--2-----------|---------------|--------------|
D||--------------|--------------|--------------|--5------------|--------------|

                      Da Coda
  E  E  E  E     E  E  E  E     E  E  Q         E  E  E  E     E  E  Q     
--0-----0-----|--0-----0-----|--0-----0----||---------5-----|--0-----0----|
--0-----0-----|--0-----0-----|--0-----2----||---------3--3--|--------0----|
-----2-----2--|--------------|-------------||*-----2--------|-----2-------|
--------------|-----0-----0--|-----2-------||*--0-----------|-------------|
--4-----------|--------------|--0----------||---------------|--4----------|
--------------|--5-----------|-------------||---------------|-------------|


                 ^                                                 
                                                    |--3--|        
  E  E  E  E     E  E  S E.     E  E  E  E     E  S T  T  T E  E   
-----------2--|--3--2----0---|--------5-----|--0----0h-2p-0-------|
--------3-----|--0-----3-----|-----------3--|---------------3--2--|
--------4-----|--0-----0-----|-----2--L-----|-----2---------L-----|
-----4--------|-----0--------|--0-----------|---------------------|
--2-----------|--------------|--------------|--4------------------|
--------------|--5-----------|--------------|---------------------|

1st ending -----------------,    2nd Ending----------
  E  E  E  E     E  E  Q         E  E  E  E     E  E  E  E       E  E  E  E   
--------------|--------------||--------0-----|--L-----------||---------------|
--0-----------|--------------||--0-----0-----|--L-----------||---------0--3--|
--------0--2--|--2----------*||--------------|--------------||*--------0-----|
-----0--------|-----0--2----*||--------2-----|--4--2--------||*-----0--------|
--------------|--0-----4-----||-----2-----2--|--------2-----||---------------|
--5-----------|--------------||--2-----------|-----------2--||---5-----------|


                        |--3--|       1st Ending----------------                                          
  E  E  Q       E  E  S T  T  T E     E  E  E  E     E  E  E  E     E  E  Q     
--0-----2----|---------------------|--------------|--------------|--0-----5----|
--0----------|--0-----L-0h-2p-0----|--0-----------|--------0--3--|--0-----0----|
--------2----|--------4---------2--|--------------|--------2-----|-------------|
-----2-------|-----4---------------|-----4-----4--|-----0--------|-----2-------|
--0----------|--2------------------|--2-----0-----|--------------|--0----------|
-------------|---------------------|--------------|--5-----------|-------------|

                                 2nd Ending----------------
  E  E  E  E     E  E  Q         E  E  E  E     E  S S S S E     E  E  S E  S  
--2-----------|--------------||--------5--5--|--0--L-0-----2--|--L-------3--2-|
--------------|--------------||--------3-----|-----------3----|---------------|
--------------|--0----------*||--------------|--2-------------|--------2------|
--------0--2--|--------4----*||--------2-----|---------4------|-----0---------|
-----0--------|-----0--5-----||-----2--------|-----4----------|---------------|
--0-----------|--------------||--2-----------|--4-------------|--5------------|


        ^                               ^                        
  E  E  Q       E  E  S S E       E  E  E  E     E  S S S S S S  
--L-----0----|--L------------||---------5--5--|--0--L-4---0---2-|
--------2----|--L------------||---------3-----|--0--L-------0---|
--------2----|--L-------2----||*--------------|-----------------|
-----2-------|-----2--L---2--||*--------0-----|---------2-------|
--0----------|---------------||------0-----0--|-----2-----------|
-------------|---------------||---0-----------|--2--------------|


                                              ^                        
          |--3--|                                                      
  E  E  S T  T  T  E     E  E  E  E     E  E  E  E     E  S S S S S S  
--L-----L-2h-4p-2p-0--|--2-----------|--------5--5--|--7--5-4---0---2-|
----------------------|--------------|--------3-----|--0----------0---|
----------------------|--------------|--------------|-----------------|
--------0-------------|--2-----4-----|--------0-----|---------2-------|
-----0-------------0--|-----0-----0--|-----0-----0--|--7--------------|
--0-------------------|--------------|--0-----------|-----------------|


                         1st Ending--,    2nd Ending------                                              
  E  E  S    T  T  E     E  E  E  E       E  E  E  E     E  S S E  E   
--L----------4p-2p-0--|--2------------||--2--------0--|---------------|
----------------------|---------------||--------------|--3----3-L-----|
--------1-------------|--------------*||--------------|---------4-----|
----------------------|--4-----------*||--4-----------|-----4------4--|
-----4----------------|-----4-----4---||-----4-----4--|--2------------|
--4-------------------|--------2------||--------2-----|---------------|

                             
  ^               ^         DC al Coda     (CODA)                                    
  E  S S E  E     H           Q    Q       E  E  E  E     E  E  E  E   
--0----2-L--5--|--7--------|--L---------|--0-----0-----|--------------|
--2------------|--7--------|--L---------|--0-----2-----|--------------|
--2------2-----|--7--------|--L---------|--------------|--------------|
-----2---------|-----------|------------|-----2--------|--------0--4--|
--0------------|-----------|-------0----|--0--------0--|-----0--------|
---------------|--5--------|--L---------|--------------|--0-----------|


                 ^          
  E  E  E  E     H          
--------------|--2--------||
--------------|--3--------||
--0-----------|--2--------||
-----4--0--2--|--0--------||
--------------|--0--------||
--------------|--0--------||




Duration Legend
---------------
W - whole
H - half
Q - quarter
E - 8th
S - 16th
T - 32nd
X - 64th
. - note dotted
|-n-|  - n-tuplets


Tablature Legend
----------------
L - tied note
h - hammer on
p - pull off
^ - brush up
1st/2nd Endings - Play through once with 1st ending, then on the repeat jump 1st ending and play 2nd ending
D.C. al Coda - Go back to the beginning of the piece and play to the end of the measure marked Da Coda
Da Coda - Go to the section marked (CODA)
Login or Register to remove this ad.

4 comments on Pain - Piano Version

everything should be working

everything should be working now :)

Yep. Great arrangement, as

5

Yep.
Great arrangement, as usual. ^^

This is beautiful im learning

This is beautiful im learning this one as we speak. 5 stars Kabuki for this arrangement

nice

12.75

i like this song.....i wan to play it but its hard maybe take a weeekXD