Ads

Beach of Nothingness (Xenosaga) Guitar Tab

Submitted: Jun 26, 2013 by Aleqh

3.666665
Average: 3.7 (6 votes)
Download | Listen
Game: Xenosaga
Composer(s): Yasunori Mitsuda
Style: Arrangement, Fingerstyle
Series: Xeno

This song is also called Beach of Void - 虚無の浜辺

Click here for a video example.

AutoScroll: Slow | Medium | Fast
Title: Beach of Nothingness
SubTitle: ~Xenosaga Episode I~
Music: Yasunori Mitsuda, Arranged by Aleqh / Asch.
Tempo = 88
Guitar

Legend
L - tied note
x - dead note
h - hammer on/pull off
b - bend
s - slide
~ - vibrato
g - ghost note
> - accentuated note
t - trill
M - palm mute
. - staccato
P - popping (bass)
S - slapping (bass)
+ - tapping
W - wide vibrato
< - fade in
w - whammy bar
= - tremolo picking
v - brush up
^ - brush down
V - pick stroke up
n - pick stroke down


E ||---------------------------------------|
B ||----------------------------0--0--0----|
G ||o--------------------------------------|
D ||o------4-----------4-------------------|
A ||----2-----2-----2-----2----------------|
E ||-0-----------0-------------------------|


----------------------------------------|
----------------------------------------|
-----------------------------2--2--2----|
--------5-----------5-------------------|
-----3-----3-----3-----3----------------|
--0-----------0-------------------------|


----------------------------------------|
----------------------------------------|
-----------------------------0--0--0----|
--------7-----------7-------------------|
-----5-----5-----5-----5----------------|
--0-----------0-------------------------|


---------------------------------------||----------------------------------|
---------------------------------------||----------------------------------|
-----------------------------0--0--2--o||----------------------------------|
--------0-----------0-----------------o||--------4-----------4--------2----|
-----3-----3-----3-----3---------------||-----2-----2-----2-----2----------|
--0-----------0------------------------||--0-----------0-------------------|


----------------------------------------|-------------------------------|
--------------------------0--------3----|-------------------------------|
--------0-----------0-------------------|--------2-----------2.----2----|
----------------------------------------|-----0-----0-----0-----0-------|
-----3-----3-----3-----3----------------|-------------------------------|
--0-----------0-------------------------|--0-----------0----------------|


----------------------------------------------------|
-----------------------------------------------1----|
--------------------------------0-----------0-------|
--------------------------------------4-------------|
-----3-----3-----3-----3----------------------------|
--0-----------0-------------------------------------|


----------------------------------|
--------------------------0-------|
----------------------------------|
--------4-----------4--------2----|
-----2-----2-----2-----2----------|
--0-----------0-------------------|


----------------------------------------------------|
----------------------------------------------------|
--------------------------------0-----------0-------|
--------1--------------------------2--4-------------|
-----3-----3-----3-----3----------------------------|
--0-----------0-------------------------------------|


-------------------------------|-------------------------------|
-------------------------------|-------------------------------|
-------------------------------|--------2-----0--------0-------|
--------4-----------4----------|--------------------4----------|
-----2-----2-----2-----2--2----|-----2-----2-----2-------------|
--0-----------0----------------|--0----------------------------|


----------------------------------|----------------------------------------|
----------------------------------|--------------------------0--------3----|
----------------------------------|--------0-----------0-----0-------------|
--------4-----------4-----2-------|----------------------------------------|
-----2-----2-----2-----2-----2----|-----3-----3-----3-----3----------------|
--0-----------0-------------------|--0-----------0-------------------------|


-------------------------------|
-------------------------------|
--------2-----------2.----2----|
-----0-----0-----0-----0--0----|
-------------------------------|
--0-----------0----------------|


----------------------------------------------------|
-----------------------------------------------1----|
--------------------------------0-----------0-------|
--------------------------------2-----4-------------|
-----3-----3-----3-----3----------------------------|
--0-----------0-------------------------------------|


----------------------------------|
--------------------------0-------|
----------------------------------|
--------4-----------4-----2--2----|
-----2-----2-----2-----2----------|
--0-----------0-------------------|


----------------------------------------------------|
--------------------------------4-----0-------------|
--------4-----------------------4-----0-----0--3----|
-----------------------------------------------4----|
-----3-----3-----3-----3----------------------------|
--0-----------0-------------------------------------|


----------------------------------------|-------------------------------|
-----------------------------0L---------|--------------------------0----|
--------------------------3--0L---------|--------2-----0--------0--0----|
--------------------4-----4-------------|--------------------4----------|
-----2-----2-----2-----2----------------|-----2-----2-----2-------------|
--0-----------0-------------------------|--0----------------------------|


-------------------------------|----------------------------------|
-------------------------------|----------------------------------|
-----------2--------0----------|--------------------------2-------|
--------4--------------4--2----|--------1--4--------------1--4----|
-----2-----------2-------------|-----2-----------2--3--2-----3----|
--0-----------0----------------|--0-----------0-------------------|


----------------------------------------|----------------------------------|
----------------------------------------|----------------------------------|
-----------2--------------0--------2----|----------------------------------|
--------4-----------2--4--0-------------|--------1--4--------------4--1----|
-----2-----------2----------------------|-----2-----------2--3--2--4--0----|
--0-----------0-------------------------|--0-----------0-------------------|


----------------------------------------|
----------------------------------------|
-----------2--------2-------------------|
-----------------------4-----4--2-------|
-----2--2--------2--------------2-------|
--0-----------0-------------------------|


----------------------------------------|-------------------------------|
--------------------------------1-------|--------------------------0----|
-----------------------------0--0-------|-----------2--------2----------|
--------2--4--------------4-------------|--------4--------------4--4----|
-----2-----------2--3--2----------------|-----2-----------2-------------|
--0-----------0-------------------------|--0-----------0----------------|


-------------------------------|-----------0-------|
-------------------------------|-----0--4----------|
-------------------------------|-------------------|
--------1--4--------------4----|-------------------|
-----2-----------2--3--2-------|-------------------|
--0-----------0----------------|--0----------------|


----------------------------|-------------|----------|
-----------------0----------|-------------|----------|
--------------3-------------|-----0-------|----------|
--0--------4----------------|-----1-------|-----1----|
----------------------------|--------3----|-----2----|
----------------------------|-------------|----------|


----------------------------------|----------------------------------------|
----------------------------------|--------------------------0--------3----|
----------------------------------|--------0-----------0-------------------|
--------4-----------4--------2----|----------------------------------------|
-----2-----2-----2-----2----------|-----3-----3-----3-----3----------------|
--0-----------0-------------------|--0-----------0-------------------------|


-------------------------------|
-------------------------------|
--------2-----------2.----2----|
-----0-----0-----0-----0-------|
-------------------------------|
--0-----------0----------------|


----------------------------------------------------|
-----------------------------------------------1----|
--------------------------------0-----------0-------|
--------------------------------------4-------------|
-----3-----3-----3-----3----------------------------|
--0-----------0-------------------------------------|


----------------------------------|
--------------------------0-------|
----------------------------------|
--------4-----------4--------2----|
-----2-----2-----2-----2----------|
--0-----------0-------------------|


----------------------------------------------------|
----------------------------------------------------|
--------------------------------0-----------0-------|
--------1--------------------------2--4-------------|
-----3-----3-----3-----3----------------------------|
--0-----------0-------------------------------------|


-------------------------------|-------------------------------|
-------------------------------|-------------------------------|
-------------------------------|--------2-----0--------0-------|
--------4-----------4----------|--------------------4----------|
-----2-----2-----2-----2--2----|-----2-----2-----2-------------|
--0-----------0----------------|--0----------------------------|


----------------------------------|----------------------------------------|
----------------------------------|--------------------------0--------3----|
----------------------------------|--------0-----------0-----0-------------|
--------4-----------4-----2-------|----------------------------------------|
-----2-----2-----2-----2-----2----|-----3-----3-----3-----3----------------|
--0-----------0-------------------|--0-----------0-------------------------|


-------------------------------|
-------------------------------|
--------2-----------2.----2----|
-----0-----0-----0-----0--0----|
-------------------------------|
--0-----------0----------------|


----------------------------------------------------|
-----------------------------------------------1----|
--------------------------------0-----------0-------|
--------------------------------2-----4-------------|
-----3-----3-----3-----3----------------------------|
--0-----------0-------------------------------------|


----------------------------------|
--------------------------0-------|
----------------------------------|
--------4-----------4-----2--2----|
-----2-----2-----2-----2----------|
--0-----------0-------------------|


----------------------------------------------------|
--------------------------------4-----0-------------|
--------4-----------------------4-----0-----0--3----|
-----------------------------------------------4----|
-----3-----3-----3-----3----------------------------|
--0-----------0-------------------------------------|


----------------------------------------|-------------------------------|
-----------------------------0L---------|--------------------------0----|
--------------------------3--0L---------|--------2-----0--------0--0----|
--------------------4-----4-------------|--------------------4----------|
-----2-----2-----2-----2----------------|-----2-----2-----2-------------|
--0-----------0-------------------------|--0----------------------------|


-------------------------------|----------|----------||
--------------------------0----|----------|----------||
--------2-----0--------0--0----|----------|----------||
--------------------4----------|-----2L---|-----2----||
-----2-----2-----2-------------|----------|----------||
--0----------------------------|--3L-3L---|--3--3----||


As much as this may be enjoyable to play, I think that the Guitar strips it somehow from its essence. 

IMHO, if the melody line could be played separately, in a higher octave for example. which may give it back a bit of its depth and feeling.

I played it the way I wrote and felt it. 

Enjoy experimenting!
Login or Register to remove this ad.

2 comments on Beach of Nothingness

I don't know, it seems you

5

I don't know, it seems you messed up your formatting somehow. It's mainly the harmony with the melody at the end of the measure, I played through this and the guitar pro version and it almost sounds like a completly new arrangement. Try to export the .txt with both voices enabled (melody and bass) so that it's displayed properly. That's probably the reason someone rated your arrangement 3 stars. Bit of a shame since it's a really good arrangement and a lot of fun to play.

This is how it should look like

http://www.gametabs.net/files/user/Ennea/beach%20of%20nothingness.txt

Wow, that was beautiful after

Wow, that was beautiful after playing Ennea's fixed version! Please update the original post!!!