Ads

Beach of Nothingness (Xenosaga) Guitar Tab

Submitted: May 14, 2012 by diralark

5
Average: 5 (9 votes)
Download | Listen
Game: Xenosaga
Composer(s): Yasunori Mitsuda
Style: Arrangement, Fingerstyle
Series: Xeno

AutoScroll: Slow | Medium | Fast
                       Beach of NothingnessCapo 2     from Xenosaga

 Music by Yasunori Mitsuda   >>  arr. for piano by Riulyn  >>  arr. for guitar by Diralark

 Solo Guitar, let ring, (Capo 2)

   Tempo 84
      E  E  E  E  E  E  E  E     E  E  E  E  E  E  E  E     E  E  E  E  E  E  E  E   
E||---------0-----0-----0-----|--------------------------|--------------------------|
B||---------0-----------0-----|--------3-----3-----3-----|--------3-----------3-----|
G||*--------2-----2-----2-----|--------5-----------5-----|--------4-----4-----4-----|
D||*-----2-----2-----2-----2--|-----3-----3-----3-----3--|-----5-----5-----5-----5--|
A||---0-----------0-----------|--0-----------0-----------|--0-----------0-----------|
E||---------------------------|--------------------------|--------------------------|


  E  E  E  E  E  E  E  E       E  E  E  E  E  E  E  E       E  E  E  E  E  E  E  E   
---------------------------||--------------------------||---0-----------------3-----|
--------1-----1-----3------||--------0-----------0-----||---------1-----------1-----|
--------0-----0-----0-----*||--------------2-----------||*--------------------------|
-----3-----3-----3-----3--*||-----2-----2-----2-----2--||*-----3-----3-----3-----3--|
--0-----------0------------||--0-----------0-----------||---0-----------0-----------|
---------------------------||--------------------------||---------------------------|


  E  E  E  E  E  E  E  E     E  E  E  E  E  E  E  E     E  E  E  E  E  E  E  E   
--------------------------|-----------------------1--|--0-----------------------|
--3-----3-----------3-----|--------1-----0-----1-----|--------0-----------0-----|
-----0-----0-----0-----0--|--------------------------|--------------2-----------|
--------------------------|-----3-----3-----3-----3--|-----2-----2-----2-----2--|
--0-----------0-----------|--0-----------0-----------|--0-----------0-----------|
--------------------------|--------------------------|--------------------------|


  E  E  E  E  E  E  E  E     E  E  E  E  E  E  E  E     E  E  E  E  E  E  E  E   
--------------------------|--------------------------|--------------------------|
--------1-----0-----1-----|--------0-----------0-----|--------3-----1-----0--1--|
-----------2--------------|--------------------------|--------------------------|
-----3-----------3-----3--|-----2-----2-----2-----2--|-----2-----2-----2--------|
--0-----------0-----------|--0-----------0-----------|--0-----------------------|
--------------------------|--------------------------|--------------------------|


  E  E  E  E  E  E  E  E     E  E  E  E  E  E  E  E     E  E  E  E  E  E  E  E   
--------------------------|--0-----------------3-----|--------------------------|
--------0-----------0-----|--1-----1-----------1-----|--3-----3-----------3-----|
--2-----------------------|--------------------------|--0--0-----0-----0-----0--|
-----2-----2-----2-----2--|-----3-----3-----3-----3--|--------------------------|
--0-----------0-----------|--0-----------0-----------|--0-----------0-----------|
--------------------------|--------------------------|--------------------------|


  E  E  E  E  E  E  E  E     E  E  E  E  E  E  E  E     E  E  E  E  E  E  E  E   
-----------------------1--|--0-----------------------|--------4-----0-----------|
--------1-----0-----1-----|--------0-----------0-----|--------5-----5--------4--|
--------2-----1-----------|--2-----------2-----------|--------5-----5-----5-----|
-----3-----3-----3--------|-----2-----2-----2-----2--|-----3-----3-----3--------|
--0-----------0-----------|--0-----------0-----------|--0-----------0-----------|
--------------------------|--------------------------|--------------------------|


                             1.________________
  E   E   E  E  E  E  E  E     E  E  E  E  E  E  E  E     E  E  E  E  E  E  E  E   
----------0-----------------|--0-----------------------|--------------------------|
--4-------0-----------0-----|--1-----3-----1-----0--1--|--------0--3--------1--0--|
----------------------------|--------------------------|--2-----------------------|
-------------2-----2-----2--|-----2-----2-----2--------|-----2-----------2--------|
--0-------------0-----------|--0-----------------------|--0-----------0-----------|
-----(0)--------------------|--------------------------|--------------------------|


  E  E  E  E  E  E  E  E     E  E  E  E  E  E  E  E     E  E  E  E  E  E  E  E   
--------------------------|--------------------------|--------------------------|
--3--------0--0-----------|--1-----0--3--------3--0--|--0--------0--------------|
--1-----1-----------------|--0-----------------2-----|--------1-----1-----------|
-----2-----------2--3--2--|-----2-----------2--------|-----2-----------2--3--2--|
--0-----------0-----------|--0-----------0-----------|--0-----------0-----------|
--------------------------|--------------------------|--------------------------|


  E  E  E  E  E  E  E  E     E  E  E  E  E  E  E  E     E  E  E  E  E  E  E  E   
--------------------------|--------------1-----------|--0-----------------------|
--------0--3--------1--0--|--0-----1--0--1-----------|--0-----0--3--------1--0--|
--------------2-----------|--1-----1-----------------|--------------------------|
-----2-----------2--------|-----2-----------2--3--2--|-----2-----------2--------|
--0-----------0-----------|--0-----------0-----------|--0-----------0-----------|
--------------------------|--------------------------|--------------------------|


                             ^                     ^                                        
  E  E  E  E  E  E  E  E     Q    Q    H           Q    H        Q       H        H         
--0-----------------------|--0----4----5--------|-------0-------------|--------------------|
--0--------0--------------|---------------------|--4-------------0----|--1-----------------|
--------1-----------------|---------------------|--4------------------|--1-----------------|
-----2-----------2--3--2--|---------------------|---------------------|-----------3--------|
--0-----------0-----------|--0------------------|---------------------|--------------------|
--------------------------|---------------------|--4------------------|--1-----------------|


                                                  rall. ----------------> Tempo 60
                    (Tempo 71)                    2.________________
  ^                                                                           ^                 
  W                   E  E  E  E  E  E  E  E       E  E  E  E  E  E  E  E     W                 
-------------------|---------------------------||--0-----------------------|--5----------------|
-------------------|--------0-----------0------||--1-----3-----1-----0--1--|--5----------------|
--1----------------|--2-----------------------*||--------------------------|--5----------------|
--2----------------|-----2-----2-----2-----2--*||-----2-----2-----2--------|--7----------------|
--2----------------|--0-----------0------------||--0-----------------------|--0----------------|
--0----------------|---------------------------||--------------------------|-------------------|


  W                  
--L----------------||
--L----------------||
--L----------------||
--L----------------||
--L----------------||
-------------------||

Legend
---------------
W - whole
H - half
Q - quarter
E - 8th
. - note dotted
L - tied note
(n) - ghost note
^ - brush up
Login or Register to remove this ad.

7 comments on Beach of Nothingness

Nice

5

Great arrangement.

thats a nice arrangement

5

thats a nice arrangement diralark!

thanks dudes ! Btw I was not

thanks dudes ! Btw I was not sure about the right tempo to play it with a guitar, then I play it with 2 differents, I could't choose between them c:

The ost is http://www.youtube.com/watch?v=uiTKTROpfL0

I think I love you for making

I think I love you for making this arrangement, one of my favorite soundtracks ever!

ho ! Than:x ^^

ho ! Than:x ^^

Video of me playing this song

5

Video of me playing this song =)

https://www.youtube.com/watch?feature=player_embedded&v=QRSIRzOukoo

This is awesome.

5

This is awesome.