Ads

When Grief Lets You Go (Xenosaga Episode III) Guitar Tab

Submitted: Sep 21, 2016 by thedstring

5
Average: 5 (2 votes)
Download | Listen
Game: Xenosaga Episode III
Composer(s): Yuki Kajiura
Style: Arrangement, Artificial harmonics, Fingerstyle
Series: Xeno

AutoScroll: Slow | Medium | Fast
When The Grief Lets You Go
Xenosaga ep. 3
Composed by Yuki Kajiura
Arranged for guitar by Nate Brooks (thedstring)

Standard tuning
Capo fret 3
3/4 timing

     e  e  e  e  e  e       e  e  h                e  e  e  e  e  e       e  e  h                e  e  q.       e   
E |----------------------|----------------------|----------------------|--------0-------------|--------2-------------|
B |--1--0--3--1-----0----|--------3-------------|--------1--0-----0----|-----1----------------|--------1-------------|
G |--------------2-------|--0-----2-------------|-----0--------2-------|--------0-------------|--0-------------------|
D |-----2----------------|-----0----------------|-----0----------------|--4-------------------|-----2-----------2----|
A |--0-------------------|----------------------|----------------------|--3-------------------|--0-------------------|
E |----------------------|----------------------|--3-------------------|----------------------|----------------------|

  e  e  q     q          e  e  q.       e       h.              e  e  e  e  e  e       e  e  h
----------------------|--------3-------------|--0------------|----------------------|----------------------|
----------------------|--------5-------------|--0------------|--1--0--3--1-----0----|--------3-------------|
--------0-----2-------|-----4----------------|--0------------|--------------2-------|--0-----2-------------|
--4-----0-------------|--2--------------4----|--2------------|-----2----------------|-----0----------------|
-----2----------------|----------------------|---------------|--0-------------------|----------------------|
----------------------|----------------------|---------------|----------------------|----------------------|

  e  e  e  e  e  e       q  h          e  e  q     q          h     q       e  e  h                h.
----------------------|-----0-------|--------2-------------|-------------|----------------------|----------------|
--------1--0-----0----|-----0-------|--------1-------------|--------3----|----------------------|--0-------------|
-----0--------2-------|-----0-------|--0-------------------|--------4----|--------2-------------|--0-------------|
----------------------|--4----------|-----2--------2-------|--0----------|--2-----2-------------|--2-------------|
--2-------------------|--7----------|--0-------------------|--2----------|-----2----------------|--2-------------|
----------------------|-------------|----------------------|-------------|--0-------------------|--0-------------|

(rest)        (rest)
  h.            h.            h     q       h     q       h     q       h     q       e  e  e  e  e  e
-------------|-------------|-------------|-------------|-------------|-------------|----------------------|
-------------|-------------|--0----------|--0----------|--0----------|--0----------|--1--0--3--1-----0----|
-------------|-------------|--0----------|--0----------|--0----------|--0----------|--0-----------2-------|
-------------|-------------|--4----------|--4----------|--4----------|--4----------|--2-----------2-------|
-------------|-------------|--7-----7----|--7-----7----|--7-----7----|--7-----7----|--0-----------0-------|
-------------|-------------|-------------|-------------|-------------|-------------|----------------------|

  q  q  q       e  e  e  e  e  e       q  q  q       q  q  q       q     q     e  e       q  q  q
-------------|----------------------|-----0-------|-----2-------|----------------------|-----3-------|
-----3-------|--------1--0-----0----|-----1-------|-----1-------|----------------------|-----5-------|
--0--2-------|-----0--------2-------|-----0-------|--0----------|--------0--------2----|--4-----2----|
--0-----0----|--0-----------0-------|--4----------|--2-----2----|--4-----0-----4-------|--2-----4----|
-------------|----------------------|--3-----3----|--0-----0----|--2-----------2-------|-------------|
-------------|--3-----------3-------|-------------|-------------|----------------------|-------------|

  h     q       e  e  e  e  e  e       q  q  q       e  e  e  e  e  e       q  q  q       q  q  q
--0----------|----------------------|-------------|----------------------|--------0----|-------------|
--0----------|--1--0--3--1-----0----|-----3-------|--------1--0-----0----|--------0----|--1----------|
--0----------|--0-----------2-------|--0--2-------|-----0--------2-------|-----0-------|--0----------|
--2-----4----|--2-----------2-------|--0-----0----|----------------------|--4----------|-----4--2----|
-------------|--0-----------0-------|-------------|--2-----------2-------|--7-----7----|--0----------|
-------------|----------------------|-------------|----------------------|-------------|-------------|

                                                                  (Play with a little more vigor for this part)
  q     q.       e       h.      h.      h     q       h.         e  e  e  e  e  e       q     q.       e
----------------------|-------|-------|-------------|----------|--0-----3--2--0-------|----------------------|
----------------------|-------|--0----|--0----------|--0-------|-----3-----------3----|--1-----3-------------|
----------------------|--2----|--2----|--0----------|--0-------|--0-------------------|-----------------2----|
--4-----2--------0----|--2----|--2----|--------4----|----------|--2-------------------|--0--------------0----|
--2-------------------|--2----|--2----|--------7----|----------|--0-----------0-------|----------------------|
----------------------|--0----|--0----|--0----------|--0-------|----------------------|----------------------|

  q     q     e  e       e  e  q     q          e  e  e  e  e  e       q     q     e  e       q  q  q
----------------------|----------------------|----------------------|----------------------|-------------|
--0-------------------|--------0-------------|--1--0----------------|----------------------|--0-----0----|
--------0--------2----|--0--2----------------|--------2--0----------|--------0--------2----|-----0-------|
--------4-------------|--------2-----0-------|--------------4--2----|--4-----------1-------|--2-----2----|
--------5-------------|----------------------|--3-----------0-------|--2-------------------|-------------|
--3-----------2-------|--0-------------------|----------------------|----------------------|--0----------|

  q  q  q       e  e  e  e  e  e       q     q     e  e       e  e  q     q          h     q
-------------|--0-----3--2--0-------|----------------------|----------------------|-------------|
--0----------|-----3-----------3----|--1-----3-------------|--0--1--0-------------|-------------|
-----0-------|--0-------------------|-----------------2----|--------------2-------|--0----------|
--0----------|----------------------|--0--------------4----|----------------------|--2-----4----|
--------2----|--3-----------3-------|--------------5-------|----------------------|--------5----|
-------------|----------------------|----------------------|--3-----------2-------|--0----------|

                                  (rest)                                              (rest)
  h           e  e       h           e  e       h.            h.            h.           h.
----------------------|----------------------|-------------|-------------|-------------|-------------|
----------------------|----------------------|-------------|-------------|-------------|-------------|
----------------------|----------------------|--2----------|-------------|--0----------|-------------|
--2-----------4--5----|--4--------------0----|--2----------|--4----------|--2----------|-------------|
--3-----------0-------|--2-------------------|--2----------|--2----------|--2----------|-------------|
----------------------|----------------------|--0----------|--0----------|--0----------|-------------|

  e  e  e  e  e  e       q  h          e  e  e  e  e  e       q  h          e  e  q     q
--8--7--10-8-----7----|--0----------|--------8--7--5--7----|--2--3-------|--3-----2-----0-------|
--------------10------|--8--10------|-----8----------------|--5----------|----------------------|
--9-------------------|-----11------|--0-------------------|-------------|--------2-------------|
--7-------------------|--0----------|----------------------|--2----------|-----2----------------|
----------------------|-------------|----------------------|-------------|--0-------------------|
----------------------|-------------|----------------------|-------------|----------------------|

  e  e  q.       e       q  h          e  e  h                e  e  e  e  e
--2-------------------|-----3-------|-----0----------------|--------------2-------|------------||
--3--------------3----|--5----------|----------------------|-----------3----------|------------||
----------------------|--0----------|--------0-------------|--------4-------------|------------||
--------4-------------|-------------|--4-------------------|-----5----------------|------------||
-----2----------------|-------------|----------------------|----------------------|------------||
--2-------------------|-------------|----------------------|--0-------------------|------------||



alternate way to play it (and this is a little more true to the final chord in the recording)
         AH
  e  e   e   e  e
----------------2-------|----||
-------------3----------|----||
-----0------------------|----||
--2---------------------|----||
-------<14>-------------|----||
------------------------|----||

Login or Register to remove this ad.

2 comments on When Grief Lets You Go

Here's a youtube of the

Here's a youtube of the original, the violin and cello are soooo pretty:
https://youtu.be/x31-24jc6Dw

I've also become slightly

I've also become slightly partial to playing the final chord this way, though it's not the way the original sounds at all

--------------2-------|----||
-----------3----------|----||
-----0----------------|----||
--2-------------------|----||
--------2-------------|----||
--------0-------------|----||