Ads

Hepatica (KOS-MOS) (Lemonade Serenade Version) (Xenosaga Episode III) Guitar Tab

Submitted: Aug 19, 2016 by Coolbreeze

5
Average: 5 (3 votes)
Download | Listen
Game: Xenosaga Episode III
Composer(s): Yuki Kajiura
Style: Arrangement, Fingerstyle, Natural harmonics, Transcription
Series: Xeno

AutoScroll: Slow | Medium | Fast
				  Hepatica (KOS-MOS)
				~Xenosaga Episode III~

Music by Yuki Kajiura
Arranged and Performed by Lemonade Serenade
Tabbed by Coolbreeze
Tempo = 127


       Q    Q    Q    H.              Q    Q    Q    H.              
D#||------------------0------------|-----------------0-------------||
A#||-------------0-----------------|------------0------------------||
F#||*-------1----------------------|-------1----------------------*||
C#||*--2---------------------------|--2---------------------------*||
G#||-------------------------------|-------------------------------||
D#||---0---------------------------|--0----------------------------||


   Q    Q    Q    Q    H           Q    Q    Q    Q    H           
---2-------------------4--------|--0-------------------0---------||
------------------0-------------|-----------------0--------------||
*------------2------------------|------------1------------------*||
*-------2-----------------------|-------2-----------------------*||
--------------------------------|--------------------------------||
---0----------------------------|--0-----------------------------||


                                  ^                            
  Q    Q    Q    Q    H           Q    Q    H.           Q     
--2-------------------2--------|------------------------------|
-----------------0-------------|--5---------4------------4----|
------------2------------------|--2---------------------------|
-------2-----------------------|-------4----------------------|
--0-------------------0--------|--2---------------------------|
-------------------------------|------------------------------|


  ^                                                           
  H        Q    Q    Q    Q       H        H.           Q     
-------------------------------|-----------------------------|
--4--------5---------4----5----|-----------------------------|
-------------------------------|--4--------------------------|
--6-------------6--------------|-----------6-----------------|
--4----------------------------|--4--------------------------|
-------------------------------|-----------------------------|


  Q    Q    Q    Q    H           Q    Q    Q    Q    H         
--2-------------------4--------|--0-------------------0--------|
-----------------0-------------|-----------------0-------------|
------------2------------------|------------1------------------|
-------2-----------------------|-------2-----------------------|
-------------------------------|-------------------------------|
--0----------------------------|--0----------------------------|


  ^                                                             
  Q    Q    H        Q    Q       Q    Q    Q    Q    H         
--2---------5--------4----4----|--0-------------------0--------|
--0----------------------------|-----------------0-------------|
-------2-----------------------|------------1------------------|
-------------------------------|-------2-----------------------|
-------------------------------|-------------------------------|
--0----------------------------|--0----------------------------|


                                  ^                            
  Q    Q    Q    Q    H           Q    Q    H.           Q     
--2-------------------2--------|------------------------------|
-----------------0-------------|--5---------4------------4----|
------------2------------------|--2---------------------------|
-------2-----------------------|-------4----------------------|
--0-------------------0--------|--2---------------------------|
-------------------------------|------------------------------|


  H        Q    Q    Q    Q       H        H.           Q     
-------------------------------|------------------------7----|
--4--------5---------4----5----|-----------------------------|
-------------------------------|--4--------------------------|
--6-------------6--------------|-----------6-----------------|
--4----------------------------|--4--------------------------|
-------------------------------|-----------------------------|


  ^                                                           
  Q    Q    H        H           H.           Q    Q    Q     
--7----9----7-----------------|-------------------------7----|
--5------------------5--------|--0---------------------------|
--4---------------------------|------------------------------|
------------------------------|------------------------------|
--0---------------------------|------------------------------|
------------------------------|--4-----------------0---------|


  ^                                                          
  Q    Q    H        H           H.           Q    H         
--7----9----7-----------------|--------------------0--------|
--5------------------5--------|--0--------------------------|
--4---------------------------|-----------------------------|
------------------------------|-----------------------------|
--0---------------------------|-----------------------------|
------------------------------|--4-----------------4--------|


  ^                                ^                   ^          
  Q    Q    Q    Q    Q    Q       Q    Q    Q    Q    Q    Q     
--5-------------------5----4----|--4---------2---------2----0----|
--2---------2-------------------|-----------------4----4----2----|
--2----2---------2--------------|--1----1------------------------|
--------------------------------|--------------------------------|
--------------------------------|--3-------------------4---------|
--2-------------------2---------|--------------------------------|


                                 ^                            
  H        Q    H        Q       Q    Q    H        H         
--L----------------------7----|--7----9----7-----------------|
--L--------2----4-------------|--5------------------5--------|
----------------4-------------|--4---------------------------|
------------------------------|------------------------------|
-----------2------------------|--0---------------------------|
------------------------------|------------------------------|


                                 ^                               
  H.           Q    Q    Q       Q    Q    H         Q     Q     
-------------------------7----|--7----9----7--------12----11----|
--0---------------------------|--5------------------------------|
------------------------------|--4------------------------------|
------------------------------|---------------------------------|
------------------------------|--0------------------------------|
--4-----------------0---------|---------------------------------|


                                   ^                             
  Q    Q    Q    Q    Q    Q       Q    Q    H        Q    Q     
--7-------------------7----5----|--5------------------5----4----|
------------5-------------------|--2---------2------------------|
-------4---------4--------------|--2----2-----------------------|
--------------------------------|-------------------------------|
--------------------------------|-------------------------------|
--4-------------------4---------|--2----------------------------|


  ^                                                        
  H        H        H           H        W                 
--4--------2-----------------|--2--------0----------------|
--------------------4--------|-----------2----------------|
--1--------------------------|----------------------------|
-----------------------------|----------------------------|
--3--------------------------|--4-------------------------|
-----------------------------|----------------------------|


                                         ^                                     
  H        H.           Q       H        W                   W.                
--0--------------------------|-----------5----------------|-------------------|
--2--------4------------4----|-----------2----------------|-------------------|
-----------4------------4----|--4--------2----------------|-------------------|
-----------------------------|----------------------------|-------------------|
--2--------------------------|-----------0----------------|-------------------|
-----------------------------|--4-------------------------|-------------------|


  Q    Q    Q    Q    H           Q    Q    Q    Q    H         
--2-------------------4--------|--0-------------------0--------|
-----------------0-------------|-----------------0-------------|
------------2------------------|------------1------------------|
-------2-----------------------|-------2-----------------------|
-------------------------------|-------------------------------|
--0----------------------------|--0----------------------------|


  Q    Q    Q    Q    H           Q    Q    Q    Q    H         
--2-------------------4--------|--0-------------------0--------|
-----------------0-------------|-----------------0-------------|
------------2------------------|------------1------------------|
-------2-----------------------|-------2-----------------------|
-------------------------------|-------------------------------|
--0----------------------------|--0----------------------------|


                                  ^                            
  Q    Q    Q    Q    H           Q    Q    H.           Q     
--2-------------------2--------|------------------------------|
-----------------0-------------|--5---------4------------4----|
------------2------------------|--2---------------------------|
-------------------------------|-------4----------------------|
-------0--------------0--------|--2---------------------------|
--0----------------------------|------------------------------|


  Q    Q    Q    Q    Q    Q       H        H        H         
--------------------------------|-----------------------------|
--4----5----5---------4----5----|-----------------------------|
--------------------------------|--4--------------------------|
--6--------------6--------------|-----------6--------6--------|
--4-----------------------------|--4--------------------------|
--------------------------------|-----------------------------|


  Q    Q    Q    Q    H           Q    Q    Q    Q    H         
--2-------------------4--------|--0-------------------0--------|
-----------------0-------------|-----------------0-------------|
------------2------------------|------------1------------------|
-------2-----------------------|-------2-----------------------|
-------------------------------|-------------------------------|
--0----------------------------|--0----------------------------|


  Q    Q    H.           Q       Q    Q    Q    Q    H         
--2---------5------------4----|--0-------------------0--------|
------------------------------|-----------------0-------------|
-------2----------------------|------------1------------------|
------------------------------|-------2-----------------------|
------------------------------|-------------------------------|
--0---------------------------|--0----------------------------|


                                  ^                           
  Q    Q    Q    Q    H           H        H        H         
--2-------------------2--------|-----------------------------|
-----------------0-------------|--5--------5--------4--------|
------------2------------------|--2--------------------------|
-------2-----------------------|--4--------------------------|
--0-------------------0--------|--2--------------------------|
-------------------------------|-----------------------------|


  Q    Q    Q    Q    Q    Q       H        H.           Q     
------------0-------------------|------------------------7----|
--4-------------------4----5----|-----------------------------|
-----------------1--------------|--4--------------------------|
-------2------------------------|-----------6-----------------|
--4-----------------------------|--4--------------------------|
--------------------------------|-----------------------------|


  ^                                                           
  Q    Q    H        H           H.           Q    Q    Q     
--7----9----7-----------------|-------------------------7----|
--5------------------5--------|--0---------------------------|
--4---------------------------|------------------------------|
------------------------------|------------------------------|
--0---------------------------|------------------------------|
------------------------------|--4-----------------0---------|


  ^                                                          
  Q    Q    H        H           H.           Q    H         
--7----9----7-----------------|--------------------0--------|
--5------------------5--------|--0-----------------0--------|
--4---------------------------|-----------------------------|
------------------------------|-----------------------------|
--0---------------------------|-----------------------------|
------------------------------|--4-----------------4--------|


  ^                               ^                             
  Q    Q    H        Q    Q       Q    Q    Q    Q    H         
--5------------------5----4----|--4---------2------------------|
--2---------2------------------|----------------------4--------|
--2----2-----------------------|--1----1---------1-------------|
-------------------------------|-------------------------------|
-------------------------------|--3----------------------------|
--2------------------2---------|-------------------------------|


  H        W                   H        H        Q    Q     
--2--------0----------------|--0----------------------7----|
--4--------2----------------|--2--------4------------------|
----------------------------|-----------4------------------|
----------------------------|------------------------------|
--4-------------------------|--2-----------------2---------|
----------------------------|------------------------------|


  ^                                                           
  Q    Q    H        H           H.           Q    Q    Q     
--7----9----7-----------------|-------------------------7----|
--5------------------5--------|--0---------------------------|
--4---------------------------|------------------------------|
------------------------------|------------------------------|
--0---------------------------|------------------------------|
------------------------------|--4-----------------0---------|


  ^                                                             
  Q    Q    H         H           H        Q    Q    Q    Q     
--7----9----7--------12--------|--7-----------------------5----|
--5----------------------------|-----------5---------5---------|
--4---------4------------------|----------------4--------------|
-------------------------------|-------------------------------|
--0----------------------------|-------------------------------|
-------------------------------|--4------------------4---------|


  ^                               ^                            
  Q    Q    H        Q    Q       Q    Q    H        H         
--5------------------5----4----|--4---------2-----------------|
--2---------2------------------|---------------------4--------|
--2----2-----------------------|--1----1-------------1--------|
-------------------------------|------------------------------|
-------------------------------|--3---------------------------|
--2------------------2---------|------------------------------|


  ^                                                          
  H        H.           Q       H        H        Q    Q     
--2--------0------------0----|--0---------------------------|
--4--------2-----------------|-----------4-------------4----|
-----------------------------|-----------4-------------4----|
-----------------------------|------------------------------|
--4--------------------------|--2-----------------2---------|
-----------------------------|------------------------------|


           ^                                                    
  H        W                   Q    E   E  Q    Q    Q    Q     
-----------5----------------|-------5----------------4----5----|
--4--------2----------------|-------2s--4--5----7--------------|
--4--------2----------------|----------------------------------|
----------------------------|----------------------------------|
-----------0----------------|----------------------------------|
--4-------------------------|----------------------------------|


                                    NH                         
  Q    H         H.                 H.           H.            
--7----9--------11------------|--<>12-------------------------|
------------------------------|--<>12-------------------------|
------------------------------|-------------------------------|
------------------------------|-------------------------------|
------------------------------|-------------------------------|
------------------------------|-------------------------------|


  ^                           
  W                H          
--0-------------------------||
--0-------------------------||
--1-------------------------||
--2-------------------------||
--2-------------------------||
--0-------------------------||
Login or Register to remove this ad.

1 comment on Hepatica (KOS-MOS) (Lemonade Serenade Version)

Wonderful! Favorited!The

5

Wonderful! Favorited!

The only thing I would change is this:

  Q    Q    H        H         
--7----9----7-----------------|
--5------------------5--------|
--4---------------------------|
------------------------------|
--0---------------------------|
------------------------------|

to this:

  Q    Q    H        H         
--7----9----7-----------------|
------------------------------|
--9------------------9--------|
--9---------------------------|
--0---------------------------|
------------------------------|