Ads

Torn Apart (Xenogears) Guitar Tab

Submitted: Jan 12, 2013 by thedstring

5
Average: 5 (3 votes)
Download | Listen
Game: Xenogears
Composer(s): Yasunori Mitsuda
Style: Arrangement, Fingerstyle
Series: Xeno

AutoScroll: Slow | Medium | Fast
Torn Apart
Xenogears

Composed by Yasunori Mitsuda
Arranged by Nate Brooks (thedstring)

Tuning CFCGCD
Capo fret 3

For tuning:
the 6th string down 4 fret,
the 5th string down 4 frets, 
the 4th string down 2 frets,
The 3rd string do not change,
the 2nd string up 1 fret, 
the 1st string down 2 frets.

Don't forget the capo on fret 3 with this tuning.

I know its a strange tuning, but its the only way I could find to make
the notes ring out and still keep it playable.



The symbol > after a note means to accentuate that note, make sure you
can hear that note well cause its the focus.



                           Slowly get quieter every 4
D|-----------------------|--------0-----------0-------|--------0-----------0-------|
C|-----------------------|-----0-----------0----------|-----0-----------0----------|
G|--0--------------------|--0>----------0-------------|--0-----------0-------------|
C|--2--------------------|----------------------------|----------------------------|
F|--2--------------------|----------------------------|----------------------------|
C|-----------------------|----------------------------|----------------------------|


--------0-----------0-------|--------0-----------0-------|--------0-----------0-------|
-----0-----------0----------|-----0-----------0----------|-----0-----------0----------|
--0-----------0-------------|--0-----------0-------------|--0>----------0-------------|
----------------------------|----------------------------|----------------------------|
--2>------------------------|----------------------------|--2>------------------------|
--0>------------------------|----------------------------|----------------------------|


--------0-----------0-------|--------0-----------0-------|--------0-----------0-------|
-----0-----------0----------|-----0-----------0----------|-----0-----------0----------|
--0>----------0>------------|--0>----------0-------------|--0>----------0-------------|
----------------------------|--0>------------------------|----------------------------|
--4>----------5>------------|--2>------------------------|--4>------------------------|
----------------------------|--3>------------------------|----------------------------|


--------0-----------0-------|--------0-----------0-------|--------0-----------0-------|
-----0-----------0----------|-----0-----------0----------|-----0-----------0----------|
--0>----------0-------------|--0>----------0-------------|--0>----------0-------------|
----------------------------|----------------------------|----------------------------|
--5>------------------------|--2>------------------------|--4>------------------------|
--2>------------------------|----------------------------|--0>------------------------|


--------0-----------0-------|--------0-----------0-------|--------0-----------0-------|
-----0-----------0----------|-----0-----------0----------|-----0-----------0----------|
--0>----------0-------------|--0>----------0-------------|--0>----------0>------------|
--0>------------------------|----------------------------|----------------------------|
--1>------------------------|--2>------------------------|--4>----------5>------------|
----------------------------|----------------------------|----------------------------|


--------0-----------0-------|--------0-----------0-------|--------0-----------0-------|
-----0-----------0----------|-----0-----------0----------|-----0-----------0----------|
--0>----------0-------------|--0>----------0-------------|--0>----------0-------------|
--0>------------------------|----------------------------|----------------------------|
--2>------------------------|--4>------------------------|--5>------------------------|
--3>------------------------|----------------------------|--2>------------------------|


--------0-----------0-------|--------0-----------0-------|--------0-----------0-------|
-----0-----------0----------|-----0-----------0----------|-----0-----------0----------|
--0>----------0-------------|--0>----------0-------------|--0>----------0-------------|
----------------------------|----------------------------|--0>------------------------|
--2>------------------------|--4>------------------------|--1>------------------------|
----------------------------|--0>------------------------|----------------------------|

                                                           Slowly get quieter every 4
--------0-----------0-------|--------0-----------0-------|--------0-----------0-------|
-----0-----------0----------|-----0-----------0----------|-----0-----------0----------|
--0>----------0-------------|--0-----------0-------------|--0>----------0-------------|
----------------------------|----------------------------|--2>------------------------|
--2>------------------------|----------------------------|--2>------------------------|
----------------------------|----------------------------|--0>------------------------|
                                                           rasg

--------0-----------0-------|--------0-----------0-------|--------0-----------0-------|
-----0-----------0----------|-----0-----------0----------|-----0-----------0----------|
--0-----------0-------------|--0>----------0-------------|--0-----------0-------------|
----------------------------|----------------------------|----------------------------|
----------------------------|----------------------------|----------------------------|
----------------------------|----------------------------|----------------------------|


--------0-----------0-------|--------0-----------0-------|--------0-----------0-------|
-----0-----------0----------|-----0-----------0----------|-----0-----------0----------|
--0>----0-------------------|--------------------0>-2----|--------------0-------------|
--------------2>----2-------|--5>----5-------------------|--2>------------------------|
----------------------------|----------------------------|----------------------------|
----------------------------|----------------------------|-----------------0>-2>-3----|


--------0-----------0-------|--------0-----------0-------|--------0-----------0-------|
-----0-----------0----------|-----0-----------0----------|-----0-----------0----------|
--0-----------0-------------|--0>----0-------------------|--------------------0>-2----|
----------------------------|--------------2>----2-------|--5>----5-------------------|
--0>----0-------------------|----------------------------|----------------------------|
-----------------3>-2>-0----|--2>------------------------|----------------------------|


--------0-----------0-------|--------0-----------0-------|--------0-----------0-------|
-----0----------------------|-----0-----------0----------|-----0-----------0----------|
--------------0-------------|--0-----------0-------------|--0>----0-------------------|
--2>-------0>---------------|----------------------------|--------------2>----2-------|
-----------------5>-4>-0----|--------------4>------------|--5>------------------------|
----------------------------|--2>------------------------|----------------------------|


--------0-----------0-------|--------0-----------0-------|--------0-----------0-------|
-----0-----------0----------|-----0-----------0----------|-----0-----------0----------|
--------------------0>-2----|--------------0-------------|--0-------------------------|
--5>----5-------------------|--2>------------------------|--------0>------------------|
----------------------------|----------------------------|-----5>----4>---------------|
----------------------------|-----------2>-3--5>-0>-3----|--2>------------------------|

                             
--------0-----------0-------|--------0-----------0-------|--------0-----------0-------|
-----0-----------0----------|-----0-----------0----------|-----0-----------0----------|
--0>----0-------------------|--------------------0>-2----|--------------0-------------|
--------------2>----2-------|--5>----5-------------------|--2>------------------------|
--5>------------------------|----------------------------|-----------4>-4>-5>----4----|
----------------------------|----------------------------|--------------------5>------|

 Slowly get quieter every 4
--------0-----------0-------|--------0-----------0-------|--------0-----------0-------|
-----0-----------0----------|-----0-----------0----------|-----0-----------0----------|
--0>----------0-------------|--0-----------0-------------|--0>----------0-------------|
----------------------------|----------------------------|----------------------------|
----------------------------|----------------------------|--------------5>-------2>---|
--2>------------------------|----------------------------|-----------------2--6>------|

     
--------0-----------0-------|--------0-----------0-------|--------0-----------0-------|
-----0-----------0----------|-----0-----------0----------|-----0-----------0----------|
--0-----------0-------------|--0-----------0-------------|--0-----------0-------------|
----------------------------|----------------------------|----------------------------|
--4>-2>-5>----4>-------2>---|--5>-------2>-4>-2>-5>------|--4>-------2>-5>-------2>---|
-----------5>---------------|-----2--6>-------------5>---|-----------------2>-6>------|

                                                           Slowly get quieter every 4
--------0-----------0-------|--------0-----------0-------|--------0-----------0-------|
-----0-----------0----------|-----0-----------0----------|-----0-----------0----------|
--0-----------0-------------|--0-----------0-------------|--0>----------0-------------|
----------------------------|----------------------------|----------------------------|
--4>-2>-5>----4>-------2>---|--5>-------2>-4>-2>-5>------|--4>------------------------|
-----------5>---------------|-----2>-6>-------------5>---|----------------------------|


                              Slowly get quieter every 4
--------0-----------0-------|--------0-----------0-------|--------0-----------0-------|
-----0-----------0----------|-----0-----------0----------|-----0-----------0----------|
--0-----------0-------------|--0>----------0-------------|--0-----------0-------------|
----------------------------|----------------------------|----------------------------|
----------------------------|----------------------------|----------------------------|
----------------------------|----------------------------|----------------------------|


--0-------------------------||
--0-------------------------||
--0-------------------------||
--0-------------------------||
--2-------------------------||
--3-------------------------||
 rasg
Login or Register to remove this ad.

4 comments on Torn Apart

I almost never switch to any

5

I almost never switch to any crazy tunings for a tab, but this one was definitely worth it. Awesome job.

Thanks! This is one of my

Thanks! This is one of my favorite games ever and I just kinda forgot about my want to do this song til recently.

I'm kinda proud of how good the GP6 sounds too, great example in my opinion.

Yeah, it sounds great, very

Yeah, it sounds great, very organic for a computer program.

This might be my favorite tab

This might be my favorite tab of all the one's I've made. I just wish it wasn't such a chore to tune it properly. Worth it occasionally though.