Ads

Torn Apart (Xenogears) Guitar Tab

Submitted: Jan 09, 2013 by Juja

5
Average: 5 (1 vote)
Download | No audio :(
Game: Xenogears
Composer(s): Yasunori Mitsuda
Style: 2 or more instruments
Series: Xeno

AutoScroll: Slow | Medium | Fast
Game: Xenogears
Song: Torn Apart
Composed by: Yasunori Mitsuda
Tabbed by: Not So Great Juja (Bilbo Horses)

Key:
~ = vibrato
p = pull-off
h = hammer-on
b = bend
/ = slide
pm = palm-mute
tr = tremolo picking


Background thingy that goes the entire song:


e|---------13--| 
B|-----16------| 
G|-15----------| x infinity
D|-------------| 
A|-------------| 
E|-------------| 

the part that comes in after about 11 seconds:

-----------------------------------------

e|--------------------2----------------|
B|-6------------------4----------------|
G|-3-------5---6---------------5-------|
D|-------------------------------------|
A|-------------------------------------|
E|-------------------------------------|

                                          x2

e|-------------------------------------|
B|-6------------------4----------------|
G|-6-------3----------5--------2-------|
D|-------------------------------------|
A|-------------------------------------|
E|-------------------------------------|

------------------------------------------



e|-6----------| 
B|-6----------| 
G|-3----------| 
D|------------| 
A|------------| 
E|------------| 


Starting at 1:04ish, this thingy repeats, but not as quickly as the other background thingy:


e|-6-6-------4-4------6-8------| 
B|------6-6---------------6----| 
G|-----------------------------| from 1:04ish - 1:41ish
D|-----------------------------| 
A|-----------------------------| 
E|-----------------------------| 


This is the cool part of the song that goes from 1:11-1:41ish


e|-----------------------|
B|-----------------------|
G|-----------------------|
D|-1-3-4/6--6--4-3-------|
A|-----------------6-/8--|
E|-----------------------|


e|------------------------|
B|-/4---------------------|
G|----6-5------4b(5)-6----|
D|--------6-3~------------|
A|------------------------|
E|------------------------|


e|-1h2-4---2-1--------------|
B|-------4-----2-4----------|
G|-----------------4b(5)-6--|
D|--------------------------|
A|--------------------------|
E|--------------------------|


e|-----------------|
B|-----------------|
G|-/5-5-6---5------|
D|--------6---3~---|
A|-----------------|
E|-----------------|


Then there's this background part that comes in somewhere toward the end:



e|------------------------|
B|------------------------|
G|------------------------|
D|------------------------| x some amount
A|---0-1-3-4-4---3-----1--|
E|-1-----------4----------|


There's also this:

e|----------16----13------------------13-------|
B|-14-16-14----------16----14-16---------16----|
G|--------------------------------13-----------|
D|---------------------------------------------|
A|---------------------------------------------|
E|---------------------------------------------|
Login or Register to remove this ad.

2 comments on Torn Apart

I like this. I'm working on a

I like this.

I'm working on a classical guitar version and I might use some hints from your transcription in my arrangement. Soon to come!!!

Please don't think I'm trying to out-do you, its only a coincidence, I started mine about 3 days ago =)

Hah, that's totally fine. I

Hah, that's totally fine. I just threw this tab together in like 20 minutes because somebody requested one on my recording of this song.