Ads

Tears of the Stars Hearts of the People (Xenogears) Guitar Tab

Submitted: Jul 28, 2021 by sosss13 (Last updated: Aug 03, 2021)

5
Average: 5 (2 votes)
Download | Listen
Game: Xenogears
Composer(s): Yasunori Mitsuda
Style: Arrangement, Fingerstyle
Series: Xeno

AutoScroll: Slow | Medium | Fast
Gtr I (D A D G B E) - 'Tears of the Stars Hearts of the People'
by Yasunori Mitsuda
tabbed by sosss12

  Q=68
 4/4
  Gtr I
  E   Q   E E Q  E E   Q   E E  Q  Q    Q   E E  Q  E E   Q   E E  Q  Q
|---|----------------|----------------|-----------------|-------------1---|
|---|-3---3---3--3---|-3---1----3--4--|-3---3----3--3---|-3---1----4--1---|
|---|-2---0---2--0---|-1---1----1--5--|-2---0----2--0---|-1---1----5--1---|
|-0-|-0--------------|-3--------------|-0-----------0---|-3---------------|
|---|----------------|-------------3--|-----------------|-------------3---|
|---|-5-----5------5-|-3-----3--------|-5-----5-------5-|-3-----3---------|


  Q   E E E E E E     Q.   Q.   E E   Q.   E  Q  Q    Q.   Q.   S S E
|-----------------||----------------|---------------|------------------|
|-3-----------1-3-||o---------------|---------1-----|------------------|
|-2---2-0-2-3-----||--2-------------|-0-------0-----|-2----------------|
|-0---------------||------------3---|------------1--|-3---------3------|
|-----------------||o-0---------3---|-1----1--------|------0----0-1-2--|
|-5-----5-------5-||--3----3------3-|-1-------------|-0----------------|


  Q   E E  Q  Q    Q   E E  Q  Q    E  Q   E E E E E
|----------------|----------------|------------------|
|----------3-----|-1---3----------|-1------------1---|
|-----0----------|----------2-----|-0-(0)----2-------|
|-1--------------|-3-----3--------|----2-------2---1-|
|-3-----------3--|-1-----------1--|-0------0---------|
|-5-----5--------|----------------|------------------|


  1.
  Q.   E E E S S E   Q   E E  E E E E
|------------------|---------------------||
|-3----------------|--------------1-3---o||
|-0------2-----2---|-----2-0--2-3--------||
|-0------4---0---0-|-0------------0------||
|----------0-------|--------------------o||
|-0----0-----------|-5-----5--------5----||


  2.
  Q.   E E E E E     S  S   S  S S S S S S S S S S  S   S   S
|----------------||--------------3-------3-------1-(1)-(1)-(1)-|
|-3------------1-||o-3-(3)-(3)-3-------3-------3------------3--|
|-0------0-2-3---||-----0---3------0-3-----0-3------0---3------|
|-0----------0---||--------------------------------------------|
|----------0-----||o-------------------------------------------|
|-0----0-------0-||--1-----------------------------------------|


  S  S  S S S S S S S S S S S  S   S   S    S  S   S   S  S S S S S S S S S  S   S   S
|---------1-5-----1-5-----1------------1--|------------3--5-----3-5-----3------------3--|
|-1-(1)-1-------1-------1----------1------|--------3----------3-------3----------3------|
|----2--------2-------2-----3-(3)-(3)-(3)-|-2-(2)-(2)-(2)---3-------3-----2-(2)-(2)-(2)-|
|-----------------------------------------|----0-----------------------------0----------|
|------------------------------0----------|---------------------------------------------|
|-3---------------------------------------|-5-------------------------------------------|


  1.                                    2.
  S  S   S   S  S S S S E  E  E  E       W
|------------3--5-----3--------------||-------|
|--------3----------3------------1--o||-------|
|-3-(3)-(3)-(3)---3-----0--2--3------||-^3----|
|----0------------------------0------||-^0----|
|--------------------------0--------o||-^1----|
|-5---------------------0--------0---||-^5----|


Duration Legend
---------------
W - whole; H - half; Q - quarter; E - 8th; S - 16th; T - 32nd; X - 64th; a - acciaccatura
+ - note tied to previous; . - note dotted; .. - note double dotted
Uncapitalized letters represent notes that are staccato (1/2 duration)
Irregular groupings are notated above the duration line
Duration letters will always appear directly above the note/fret number it represents the
duration for.  Duration letters with no fret number below them represent rests.  Multi-
bar rests are notated in the form Wxn, where n is the number of bars to rest for.  Low
melody durations appear below the staff

Tablature Legend
----------------
 h   - hammer-on
 p   - pull-off
 b   - bend
 pb  - pre-bend
 r   - bend release (if no number after the r, then release immediately)
 /\  - slide into or out of (from/to "nowhere")
 s   - legato slide
 S   - shift slide
  - natural harmonic
[n]  - artificial harmonic
n(n) - tapped harmonic
 ~   - vibrato
 tr  - trill
 T   - tap
 TP  - trem. picking
 PM  - palm muting
\n/  - tremolo bar dip; n = amount to dip
 \n  - tremolo bar down
 n/  - tremolo bar up
/n\  - tremolo bar inverted dip
 =   - hold bend; also acts as connecting device for hammers/pulls
 <>  - volume swell (louder/softer)
 x   - on rhythm slash represents muted slash
 o   - on rhythm slash represents single note slash

Misc Legend
-----------
 |  - bar
||  - double bar
||o - repeat start
o|| - repeat end
*|  - double bar (ending)
 :  - bar (freetime)
 $  - Segno
 &  - Coda
Tempo markers -  = BPM(8/16=s8/s16), where s8 = swing 8ths, s16 = swing 16ths
Login or Register to remove this ad.

3 comments on Tears of the Stars Hearts of the People

Brilliant!

Brilliant! But could also please add an external link to the tab in the description? The "download" button doesn't work.

External Link

I sadly don't know of any way to edit the description as the author so I hope a link in the comments will suffice
https://drive.google.com/file/d/10w-YdiM99SZ2IOHaYJuh7kwffCKnkTcO/view?u...

I love it, favorited

5

I love it, favorited