Ads

Tears of the Stars, Hearts of the People (Xenogears) Guitar Tab

Submitted: Jun 06, 2010 by Daugreano (Last updated: Jun 06, 2010)

3
Average: 3 (1 vote)
Download | Listen
Game: Xenogears
Composer(s): Yasunori Mitsuda
Style: Transcription
Series: Xeno

This song is also called A star’s tears, a man’s sentiments

AutoScroll: Slow | Medium | Fast
Song: Tears of the Stars, Hearts of the People
Game: Xenogears
Composer: Yasunori Mitsuda
Tabbed by: Daugreano


Guitar:
 
   W        Q    Q    Q    Q      W        Q    Q    Q    Q      Q    E   E   E   E   E   E
E|--------|---------------------|--------|---------------------|----------------------8---10--|
B|--------|---------------------|--------|---------------------|------10--8---10--11----------|
G|-7------|-7---------7----8----|-7------|-7---------8----10---|-7----------------------------|
D|--------|------10-------------|--------|------10-------------|------------------------------|
A|--------|---------------------|--------|---------------------|------------------------------|
E|--------|---------------------|--------|---------------------|------------------------------|
    .                           .                                 
   H      Q      H     H       H      Q      Q    Q    H       Q    Q    H       H     Q    Q
E|-------------|-------8-----|-------------|-----------10----|-8----10---------|-8----------8----|
B|-10----------|-8-----------|-10----------|------8----------|-----------10----|-------10--------|
G|--------10---|-------------|--------10---|-8---------------|-----------------|-----------------|
D|-------------|-------------|-------------|-----------------|-----------------|-----------------|
A|-------------|-------------|-------------|-----------------|-----------------|-----------------|
E|-------------|-------------|-------------|-----------------|-----------------|-----------------|
                                                 .                           .
   H     H       Q    E   E   E   E   E   E     H      Q      H     H       H      Q            
E|-10----------|----------------------8---10--|-------------|-------8-----|-------------|
B|-------10----|------10--8---10--11----------|-10----------|-8-----------|-10----------|
G|-------------|------------------------------|--------10---|-------------|--------10---|
D|-------------|------------------------------|-------------|-------------|-------------|
A|-------------|------------------------------|-------------|-------------|-------------|
E|-------------|------------------------------|-------------|-------------|-------------|
                                                                                  .
   Q    Q    H       Q    Q    H       H     Q    Q      H     E   E   E   E     H      Q
E|-----------10----|-8----10---------|-8----------8----|-10----------------8---|-10-----13---|
B|------8----------|-----------10----|-------10--------|-------8---10--11------|-------------|
G|-8---------------|-----------------|-----------------|-----------------------|-------------|
D|-----------------|-----------------|-----------------|-----------------------|-------------|
A|-----------------|-----------------|-----------------|-----------------------|-------------|
E|-----------------|-----------------|-----------------|-----------------------|-------------|
    .                                              .             .
   H      Q      W        H     E   E   E   E     H      Q      H      Q      W
E|-8-----------|--------|-------------------8---|-10-----13---|-8-----------|--------|
B|--------11---|-10-----|-8-----8---10--11------|-------------|--------11---|-10-----|
G|-------------|--------|-----------------------|-------------|-------------|--------|
D|-------------|--------|-----------------------|-------------|-------------|--------|
A|-------------|--------|-----------------------|-------------|-------------|--------|
E|-------------|--------|-----------------------|-------------|-------------|--------|
    .
   H       Q
E|-------------|
B|-8-----------|
G|-------------|
D|-------------|
A|-------------|
E|-------------|


Then, repeat if you want...

Login or Register to remove this ad.