Ads

Stage of Death (Xenogears) Guitar Tab

Submitted: Nov 13, 2021 by Omnicide (Last updated: Nov 15, 2021)

5
Average: 5 (3 votes)
Download | Listen
Game: Xenogears
Composer(s): Yasunori Mitsuda
Style: Arrangement, Fingerstyle
Series: Xeno

This song is also called Battle Theme

AutoScroll: Slow | Medium | Fast
Stage of Death                                  
Xenogears
Composed by Yasunori Mitsuda
Arranged by William Geesdorf


Playing instructions: Play to the end of the measure marked Da Segno. Go back to the measure marked "Segno" and play to the end.


                                                "Segno"
     E  E  E  E  E  E  E  E  E  E  E  E  Q         E  E  E  E  E  E  E  E   
E||-------------------------------------------||---------------------------|
B||-------------------------------------------||---------------------------|
G||--------0--1-------------------------------||*--------------------------|
D||-----0--------1--------------4--3----------||*--0--------0--------0-----|
A||--0--------------1--------4--------3-------||---0--------0--------0-----|
E||-----------1-----------2--------------3----||------0--0-----0--0-----0--|


  E  E  E  E  E  E  E   E     E  E  E  E  E  E  E  E   
---------------------------|--------------------------|
---------------------------|--------------------------|
---------------------------|--------------------------|
-----------0--------0h--2--|--0--------0--------0-----|
-----------0--------0h--2--|--0--------0--------0-----|
--0--0--0-----0--0---------|-----0--0-----0--0-----0--|


  E  E  E  E  E  E  E  E     E  E  E  E  E  E  E  E   
--------------------------|--------------------------|
--------------------------|--------------------------|
--------------------------|--------------------------|
-----------0--------------|--0--------0--------0-----|
-----------0-----2--3--4--|--0--------0--------0-----|
--0--0--0-----0--2--3--4--|-----0--0-----0--0-----0--|


  E  E  E  E  E  E  E   E     E  E  E  E  E  E  E  E   
---------------------------|--------------------------|
---------------------------|--------------------------|
---------------------------|--------------------------|
-----------0--------0h--2--|--0--------0--------0-----|
-----------0--------0h--2--|--0--------0--------0-----|
--0--0--0-----0--0---------|-----0--0-----0--0-----0--|


  E  E  E  E  E  E  E  E     E  E  E  E  E  E  E  E   
--------------------------|--------------------------|
--------------------------|--------------------------|
--------------------------|--------------------0-----|
-----------0--------------|--------------3-----------|
-----------0-----2--3--4--|--------------------------|
--0--0--0-----0--2--3--4--|--1--1--1--1--1--1--1--1--|


  E  E  E  E  E  E  E  E     E  E  E  S  S E  E  E  E   
--------------------------|----------------------------|
--------------------------|----------------------------|
--1-----------------3-----|--0--------1p-0-------------|
--------------------------|----------------3-----------|
--------------------------|----------------------------|
--1--1--1--1--1--1--1--1--|--1--1--1--1----1--1--1--1--|


  E  E  E  E  E  E  E  E     E  E  E  E  E  E  E  E   
--------------------------|--------------------------|
--------------------------|--------------------------|
--------------------------|-----------1--------------|
--------------------1-----|--4-----------------3-----|
--------1-----3-----------|--------------------------|
--1--1--1--1--1--1--1--1--|--2--2--2--2--2--2--2--2--|


  E  E  E  E  E  E  E   E     E  E  E  E  E  E  E  E   
---------------------------|--------------------------|
---------------------------|--------------------------|
---------------------------|--------------------------|
--4--------4--------4s--6--|--4--------4--------4-----|
-----------4--------4s--6--|--4--------4--------4-----|
--2--2--2-----2--2---------|-----2--2-----2--2-----2--|


  E  E  E  E  E  Q    E       E  E  E  E  E  E  Q    Q     
-------------------------||-------------------------------|
-------------------------||---1---------------------------|
-----------------1----3--||*--------0--1--0-----3----3----|
-----------4-------------||*-----3-----------3------------|
-----------4-------------||---3--------3--------4----4----|
--2--2--2-----2--2-------||-------------------------------|


  E  E  E  E  E  E  Q    Q     4x   E  E  E  E  E  E  E  E   
-------------------------------||---------------------------|
--1-----------------4----2-----||---1--------1--------------|
--------0--1--0---------------*||*--1--------1--------3-----|
-----3-----------3------------*||*--------------------------|
--3--------3--------4----4-----||---------------------------|
-------------------------------||------2--2-----2--2-----2--|


  E  E  E  E  E  E  E  E     E  E  E  E  E  E  E  E   
--------------------------|--------------------------|
--1--------1--------------|--1--------1--------------|
--1--------1--------3-----|--0--------0--------------|
--------------------------|--------------------------|
--------------------------|--------------------------|
-----2--2-----2--2-----2--|-----3--3-----3--3--3--3--|


  E  E  E  E  E  E  E  E     E  E  E  E  E  E  E  E   
--------------------------|--------------------------|
--1--------1--------------|--1--------1--------------|
--0--------0--------------|--1--------1--------3-----|
--------------3-----------|--------------------------|
--------------------------|--------------------------|
-----3--3--------3--3--3--|-----2--2-----2--2-----2--|


  E  E  E  E  E  E  E  E     E  E  E  E  E  E  E  E   
--------------------------|--------------------------|
--1--------1--------------|--1--------1--------------|
--1--------1--------3-----|--0--------0--------------|
--------------------------|--------------------------|
--------------------------|--------------------------|
-----2--2-----2--2-----2--|-----3--3-----3--3--3--3--|


  E  E  E  E  E  E  E  E     Q    E  Q    Q    Q    Q    Q    Q    E   
--------------------------|-------------------------------------------|
--1--------1--------------|-------------------------------------------|
--0--------0--------------|-------0--1----3----1----0---------0-------|
--------------------------|-------0--1----3----1----0----3----0----4--|
--------------------------|--3---------------------------3---------4--|
-----3--3-----3--3--3--3--|-------------------------------------------|

                                           Da Segno
  E  E  E  E  E  E  Q       Q    E  E  E  E  E  E   
-------------------------|-------------------------|
-------------------------|-------------------------|
--------3-----5-----6----|-------------------------|
--L--L--------------4----|--3----------1-----------|
--L--L-----4-----4-------|--3----------1-----------|
-------------------------|-------1--1-----1--1--1--|


  E  E  E  E  E  E  E  E  E  E  E  E  Q       E  H        Q    E   
-------------------------------------------|----------------------|
-------------------------------------------|----------------------|
--------0--1-------------------------------|----------------------|
-----0--------1--------------4--3----------|--2-------------------|
--0--------------1--------4--------3-------|--2-------------------|
-----------1-----------2--------------3----|--0-------------------|


  W                  
-------------------||
-------------------||
-------------------||
-------------------||
-------------------||
-------------------||




Duration Legend
---------------
W - whole
H - half
Q - quarter
E - 8th
S - 16th
T - 32nd
X - 64th
. - note dotted
|-n-|  - n-tuplets


Tablature Legend
----------------
L - tied note
h - hammer on
p - pull off
s - legato slide
Login or Register to remove this ad.