Ads

Stage of Death (Xenogears) Guitar Tab

Submitted: Dec 19, 2012 by BacardiBreezer

4
Average: 4 (1 vote)
Download | Listen
Game: Xenogears
Composer(s): Yasunori Mitsuda
Style: Alternate picking, Transcription
Series: Xeno

This song is also called Battle Theme

AutoScroll: Slow | Medium | Fast
Stage of Death (Battle Theme)
Xenogears
Composed by: Yasunori Mitsuda
Tabbed by: Bacardibreezer
12/16/12

Solo Guitar - Use your own knowledge of the song for timing!

e|--------15-16------------------14-13-----------|
B|-----15-------16------------14-------13--------|
G|--14-------------15------13-------------12-----|
D|-----------------------------------------------|
A|-----------------------------------------------|
E|-----------------------------------------------|

e|--10-10-10---10---10--12-|--10-10-10---10---7-8-9--|
B|-------------------------|-------------------------|
G|-------------------------|-------------------------|
D|-------------------------|-------------------------|
A|-------------------------|-------------------------|
E|-------------------------|-------------------------| x2

e|---------------------------------|----------------------------|-------|--------------|
B|-------8--9-----11-8----9p8p6~---|-------------9--------------|-------|--------9-11--|
G|--10-----------------------------|--8--10--11--------10--11~--|---L---|--11-11-------|
D|---------------------------------|----------------------------|-------|--------------|
A|---------------------------------|----------------------------|-------|--------------|
E|---------------------------------|----------------------------|-------|--------------|

e|--8---8-------------|--8---8---8/11----9---|
B|-------------11-11--|----------------------|
G|--------------------|----------------------|
D|--------------------|----------------------|
A|--------------------|----------------------|
E|--------------------|----------------------| x4

e|-----------18-20-18---------|
B|--------18----------18------|
G|-----17----------------17---|
D|--20------------------------|
A|----------------------------|
E|----------------------------| x8

e|--15--16--18--16--15--13--15--14--------------14--13--11---|
B|-----------------------------------------------------------|
G|-----------------------------------------------------------|
D|-----------------------------------------------------------|
A|-----------------------------------------------------------|
E|-----------------------------------------------------------|




Loop @ second measure
Login or Register to remove this ad.