Ads

Small Two of Pieces ~ Screeching Shards (Xenogears) Guitar Tab

Submitted: Jan 11, 2011 by zen03y

3
Average: 3 (1 vote)
Download | Listen
Game: Xenogears
Composer(s): Yasunori Mitsuda
Style: Arrangement
Series: Xeno

AutoScroll: Slow | Medium | Fast
Title: Small Two of Pieces - Screeching Shards (E. Guitar Solo)
Game: Xenogears
Artist Yasunori Mitsuda, sung by Joanne Hogg
Tempo = 104

Tabbed by xen05z/zen03y on January 11th, 2011

Electric Guitar

Legend
L - tied note
x - dead note
h - hammer on/pull off
b - bend
s - slide
~ - vibrato
g - ghost note
> - accentuated note
t - trill
M - palm mute
. - staccato
P - popping (bass)
S - slapping (bass)
+ - tapping
W - wide vibrato
< - fade in
w - whammy bar
= - tremolo picking
v - brush up
^ - brush down
V - pick stroke up
n - pick stroke down

                                                        
D |--------------------------------------------13-15---|
A |-----------------------------------------13---------|
F |--------------------------------------14------------|
C |--------------------------15-17-15-17---------------|
G |--------------------15-17---------------------------|
D |--------------15s17---------------------------------|

                                                     
--15L---------15b---15-13-15b-----------------------|
----------------------------------------------------|
----------------------------------------------------|
----------------------------------------------------|
----------------------------------------------------|
----------------------------------------------------|

                                      v              
--13-15-17------------------------------------------|
-----------15---------------------------------------|
----------------------------------------------------|
--------------------------------------x-------------|
--------------------------------------x-------------|
--------------------------------------x-------------|

                                                     
--------------20-18-17----18-17----------17-18-20---|
-----------------------20---------------------------|
--x-------------------------------------------------|
--x-------------------------------------------------|
----------------------------------------------------|
----------------------------------------------------|

                                                           
----------------------------------------------------------|
--18----------------------20-18-17------------------------|
-----------------------------------19-17------------------|
-----------------------------------------20-19-17----17---|
--------------------------------------------------20------|
----------------------------------------------------------|

                                                                                
--------------------------------------------------------------------------------
--------------------------------------------------------------------------------
--------------------------------------------------------------------------------
--19----------------------------------------------19----------------------17----
--------------------------------------------------------------------------------
--------------------------------------------------------------------------------

                                                                                
---------------------------------------------------17-20L20L20L20L20-------20L20
------------------------------------------18----18------------------------------
------------------17----19----19------------------------------------------------
19----20----20------------------------------------------------------------------
--------------------------------------------------------------------------------
--------------------------------------------------------------------------------

                                                                                
L20----18L18L18----20L20L20-20--------------------------------------------------
----------------------------------20----18L---18-18-17--------------------------
----------------------------------------------------------19----19----19L-------
--------------------------------------------------------------------------------
--------------------------------------------------------------------------------
--------------------------------------------------------------------------------

                 
----------------|
----------------|
--19-19-17------|
----------------|
----------------|
----------------|

                                                                                
--------------------------------------------------------------------------------
--------------------------------------------------------------------------15----
--15----17-15-14----------------------------------------------------17----------
--------------------17-15----17-------------------------------17----------------
--------------------------------------------------------------------------------
--------------------------------------------------------------------------------

                     
------15----15L-----|
18------------------|
--------------------|
--------------------|
--------------------|
--------------------|

                                                                                
--15b---------------------------------------------13L---13L---13----------15b---
--------------------------------------------------------------------------------
--------------------------------------------------------------------------------
--------------------------------------------------------------------------------
--------------------------------------------------------------------------------
--------------------------------------------------------------------------------

                                                                                
------------------------------------------15s13----------15L--------------------
--------------------------------------------------------------------------------
--------------------------------------------------------------------------------
--------------------------------------------------------------------------------
--------------------------------------------------------------------------------
--------------------------------------------------------------------------------

                                     
-15L---------15L---15~13----15------|
------------------------------------|
------------------------------------|
------------------------------------|
------------------------------------|
------------------------------------|

                                                                                
--13----------------------------------------------------------------------------
-----15L---------------------------------------------15L---------15s---13-13----
--------------------------------------------------------------------------------
--------------------------------------------------------------------------------
--------------------------------------------------------------------------------
--------------------------------------------------------------------------------

                     
------20----18------|
18------------------|
--------------------|
--------------------|
--------------------|
--------------------|

                                                                                
--17----------17L---------17L---17b17-18-17L---17-------------------------------
--------20----------------------------------------18s---13L---------------------
--------------------------------------------------------------------------------
--------------------------------------------------------------------------------
--------------------------------------------------------------------------------
--------------------------------------------------------------------------------

                                                                          
--------------------|--------------------------20L20b---20L---20b20-22---|
13L---------13~-----|----------------------------------------------------|
--------------------|----------------------------------------------------|
--------------------|--x--------------22-22s15---------------------------|
--------------------|--x-------------------------------------------------|
--------------------|--x-------------------------------------------------|

                                                     
--18L---18-18L---18-18-20-17L---17-17L---17-17L17---|
----------------------------------------------------|
----------------------------------------------------|
----------------------------------------------------|
----------------------------------------------------|
----------------------------------------------------|

                                                     
--17------------------------------------------------|
--------------------------------18-18----18----18---|
----------------------------------------------------|
----------------------------------------------------|
----------------------------------------------------|
----------------------------------------------------|

                                                                                
--17----------------------------13----18----13L---13----19L---19----13----20L---
--------------------------------------------------------------------------------
--------------------------------------------------------------------------------
--------------------------------------------------------------------------------
--------------------------------------------------------------------------------
--------------------------------------------------------------------------------

                                                                          
--------------------|--20----------------------18s20-17----------17------|
--------------------|----------------------------------------------------|
--------------------|----------------------------------------------------|
--------------------|----------------------------------------------------|
--------------------|----------------------------------------------------|
--------------------|----------------------------------------------------|

                             
----------------------------|
--15L---------15L---15~15L--|
----------------------------|
----------------------------|
----------------------------|
----------------------------|

                                                     
-----------------------------------------13-15-17---|
--15L---15L15s------------------------15------------|
--------------------------------14-17---------------|
--------------------------15-17---------------------|
--------------------15-17---------------------------|
--------------15-17---------------------------------|

                                                                                
--8L----------8s----20----------------17----13----13h---15h---13h10h13h17h10h13h
--------------------------------------------------------------------------------
--------------------------------------------------------------------------------
--------------------------------------------------------------------------------
--------------------------------------------------------------------------------
--------------------------------------------------------------------------------

                     
15h13h10h13h17h13h--|
--------------------|
--------------------|
--------------------|
--------------------|
--------------------|

                                                                                
--10h13h15h13h12h13h17h13h10h13h15h13h10h13h17h13h10h13h15h13h10h13h17h13h10h13h
--------------------------------------------------------------------------------
--------------------------------------------------------------------------------
--------------------------------------------------------------------------------
--------------------------------------------------------------------------------
--------------------------------------------------------------------------------

                     
15h13h10h13h17-13---|
--------------------|
--------------------|
--------------------|
--------------------|
--------------------|

                                                                                
--10h13h15h13h10h13h17h13h10h13h15h13h10h13h17h13h10h13h15h13h10h13h17h13h10h13h
--------------------------------------------------------------------------------
--------------------------------------------------------------------------------
--------------------------------------------------------------------------------
--------------------------------------------------------------------------------
--------------------------------------------------------------------------------

                                                                          
15-13-15------------|--15L---------------------15L---15b17-------18-18b--|
--------------------|----------------------------------------------------|
--------------------|----------------------------------------------------|
--------------------|----------------------------------------------------|
--------------------|----------------------------------------------------|
--------------------|----------------------------------------------------|

                                                                                
--18L---------------------------------------------18b---------17-18-20L---------
--------------------------------------------------------------------------------
--------------------------------------------------------------------------------
--------------------------------------------------------------------------------
--------------------------------------------------------------------------------
--------------------------------------------------------------------------------

                     
------------20L-----|
--------------------|
--------------------|
--------------------|
--------------------|
--------------------|

                                                                                
--20----------17-18-20----------17-18-20----17-18-20-17-18-20-17-18-20L20-17L17L
--------------------------------------------------------------------------------
--------------------------------------------------------------------------------
--------------------------------------------------------------------------------
--------------------------------------------------------------------------------
--------------------------------------------------------------------------------

                                
17L17-17------------|----------|
--------------------|--18L18s--|
--------------------|----------|
--------------------|----------|
--------------------|----------|
--------------------|----------|

                                                     
-----------------17L17----18-18----17-20b-----------|
-----------18---------------------------------------|
----------------------------------------------------|
----------------------------------------------------|
----------------------------------------------------|
----------------------------------------------------|

                             
--22~---22~---22~22~---22~--|
----------------------------|
----------------------------|
----------------------------|
----------------------------|
----------------------------|

                                                     
--22L---------22~---20L---------20b-----------------|
----------------------------------------------------|
-----------------------------------17---------------|
--------------------------------------17-15-17-19---|
----------------------------------------------------|
----------------------------------------------------|

                                                     
-----------15-17-20L---------------------20s18L-----|
--------17------------------------------------------|
-----17---------------------------------------------|
--17------------------------------------------------|
----------------------------------------------------|
----------------------------------------------------|

                                                     
--18----------------------17L---------17------------|
--------------------------------------------18-17---|
----------------------------------------------------|
----------------------------------------------------|
----------------------------------------------------|
----------------------------------------------------|

                                                                                
--------------17-------17h20h17----17h20h17----17h20h17----17h20h17----17h20h17-
--15L---15----------20----------20----------20----------20----------20----------
--------------------------------------------------------------------------------
--------------------------------------------------------------------------------
--------------------------------------------------------------------------------
--------------------------------------------------------------------------------

                     
---17h20h17----17h--|
20----------20------|
--------------------|
--------------------|
--------------------|
--------------------|

                                                                                
--20h17----17h20h17----17h20h17----17h20h17----17h20h17----17-------------17----
--------20----------20----------20----------20----------20----20----20----------
--------------------------------------------------------------------------------
--------------------------------------------------------------------------------
--------------------------------------------------------------------------------
--------------------------------------------------------------------------------

                                                   
20L---------20------|--20b--|-----22---|--24b22L--|
--------------------|-------|----------|----------|
--------------------|-------|----------|----------|
--------------------|-------|----------|----------|
--------------------|-------|----------|----------|
--------------------|-------|----------|----------|

                                                     
--22~---------------------17L---17-18L---18-20-18---|
----------------------------------------------------|
----------------------------------------------------|
----------------------------------------------------|
----------------------------------------------------|
----------------------------------------------------|

                                                                
--17------------------------------------------------|----------|
--------------------------18-17---------------------|----------|
--------------------------------19-17---------------|----------|
--------------------------------------20-19-17------|--17-19---|
-----------------------------------------------20---|----------|
----------------------------------------------------|----------|

                                                                                
--------------------------------------------------------------------------------
--------------------------------------------------------------------------------
--------------------------------------------------------------------------------
--19----------------------------------------------19----------------------17----
--------------------------------------------------------------------------------
--------------------------------------------------------------------------------

                                                                                
---------------------------------------------------17-20L20L20L20L20L20L20-20L20
------------------------------------------18----18------------------------------
------------------17----19----19------------------------------------------------
19----20----20------------------------------------------------------------------
--------------------------------------------------------------------------------
--------------------------------------------------------------------------------

                                                                                
L20L20-18L18L18----20L20L20-20--------------------------------------------------
----------------------------------20----18L---18-18-17--------------------------
----------------------------------------------------------19----19----19L-------
--------------------------------------------------------------------------------
--------------------------------------------------------------------------------
--------------------------------------------------------------------------------

                 
----------------|
----------------|
--19-19-17------|
----------------|
----------------|
----------------|

                                                                                
--------------------------------------------------------------------------------
--------------------------------------------------------------------------------
--15----17-15-14----------------------------------------------------------17----
--------------------17-15----17-------------------------------17----19----------
--------------------------------------------------------------------------------
--------------------------------------------------------------------------------

                                                    >
------------17------|--14L---------14L---14s22L--|--22---|----------------||
------18------------|----------------------------|-------|----------------||
19------------------|----------------------------|-------|----------------||
--------------------|----------------------------|-------|----------------||
--------------------|----------------------------|-------|----------------||
--------------------|----------------------------|-------|----------------||
Login or Register to remove this ad.