Ads

Singing of the Gentle Wind (Xenogears) Guitar Tab

Submitted: Jan 23, 2010 by Brainsick Fungus

4
Average: 4 (1 vote)
Download | Listen
Game: Xenogears
Composer(s): Yasunori Mitsuda
Style: Transcription
Series: Xeno

AutoScroll: Slow | Medium | Fast
Singing of the Gentle Wind
By Yasunori Mitsuda
Xenogears
Tabbed by Brainsick Fungus 
8/22/09



e-3-------3-6--------------1----1-3--6--6--5--6------------------------
B-------4------4--------4-----4----------------------------------------
G-----3-----------3-5--------------------------------------------------
D----------------------------------------------------------------------
A----------------------------------------------------------------------
E----------------------------------------------------------------------

e---3-6-4h6p4-3--------------------3-4-6--3-4-6-4-3-4-6-8--------------
B---------------6-4-3--4-------4-6------------------------6------------
G-3----------------------3---3-----------------------------------------
D----------------------------------------------------------------------
A----------------------------------------------------------------------
E----------------------------------------------------------------------

e-1h3h4p3p1h3h4-6------10s11--10h11p10-8-6--4--3h4p3-------------------
B-------------------11-------------------------------------------------
G----------------------------------------------------------------------
D----------------------------------------------------------------------
A----------------------------------------------------------------------
E----------------------------------------------------------------------

e-----4-3h4p3----------------------------------------------------------
B-------------6-4--3h4p3--1h3h4----------------------------------------
G-3-5------------------------------------------------------------------
D----------------------------------------------------------------------
A----------------------------------------------------------------------
E----------------------------------------------------------------------

e---3-6-4h6p4-3--------------------3-4-6--3-4-6-4-3-4-6-8--------------
B---------------6-4-3--4-------4-6------------------------6------------
G-3----------------------3---3-----------------------------------------
D----------------------------------------------------------------------
A----------------------------------------------------------------------
E----------------------------------------------------------------------

e-1h3h4p3p1h3h4-6------10s11--10h11p10-8-6--4-4h6p4p3------------------
B-------------------11-------------------------------------------------
G----------------------------------------------------------------------
D----------------------------------------------------------------------
A----------------------------------------------------------------------
E----------------------------------------------------------------------

e-1----------1-3-1h3p1------------1----------1-1-3-3-6-5s6-4----3s4-3--
B----4-1-3-4-----------1-1--3--4---------4-4-----------------4---------
G------------------------------------3-3-------------------------------
D----------------------------------------------------------------------
A----------------------------------------------------------------------
E----------------------------------------------------------------------

e---------1-2s3--1h3p1---1-----------1-1-3-3-6-5s6-4----3s4-3----------
B-----4-4--------------4---------4-4-----------------4-----------------
G-3-3------------------------3-3---------------------------------------
D----------------------------------------------------------------------
A----------------------------------------------------------------------
E----------------------------------------------------------------------

e---------1-2s3--1h3p1---1------------------1---5s6--4-6p4p3-----------
B-----4-4--------------4-----3s4-3-1--1-3-4----------------------------
G-3-3-----------------------------------------3------------------------
D----------------------------------------------------------------------
A----------------------------------------------------------------------
E----------------------------------------------------------------------

e--------3s4--3h4p3-1--------------------------------------------------
B-4-3-1---------------4--3-4-------------------------------------------
G----------------------------------------------------------------------
D----------------------------------------------------------------------
A----------------------------------------------------------------------
E----------------------------------------------------------------------
Login or Register to remove this ad.