Ads

Singing of the Gentle Wind (Xenogears) Guitar Tab

Submitted: Apr 13, 2019 by sosss12 (Last updated: Apr 16, 2019)

5
Average: 5 (2 votes)
Download | Listen
Game: Xenogears
Composer(s): Yasunori Mitsuda
Style: Arrangement, Fingerstyle
Series: Xeno

AutoScroll: Slow | Medium | Fast
Xenogears
Singing of the Gentle Wind
by Yasunori Mitsuda
tabbed by sosss12
3/19/19

Gtr I (E A D G B E)
 
  Q=62
 4/4
  Gtr I
  Q  +S  S S S Q  E. S   Q  Q  Q  E. T T
|----------------------|------------------|
|----------------------|------------------|
|-0--(0)-----0-3-------|------------------|
|-1--(1)---1---1--1----|-------1--3----3--|
|-1--(1)-1-----------1-|-3-----3--5--6----|
|--------------3-------|-4--4--4--6-------|


  Q  Q  Q  Q    H     Q   E E
|-------------|---------------|
|-------------|---------------|
|-0--3--3--2--|-3----(3)------|
|-1--1--3-----|-1-----0-------|
|-1-----------|-------------1-|
|-------1-----|-1-----1-------|


    $
    E E X X S. E E E E. S   Q  E. S H  S S S S S   E  E E E S T T S S E E
||------------------------|----------------------|------------------------|
||o-----------------------|----------------------|----------------------1-|
||--0-3-1-3-1--0----------|------------------0-1-|-3------0-1-3-1-0-1-3---|
||--1------------3-1-0--1-|--------------1-3-----|-3----0-------------1---|
||o-----------------------|-1----------1---------|----1-------------------|
||---------------4--------|-3--4--3-3------------|-3--------1-------------|


              |-3-|
  H    E. S S T T T S S   E   E E S Q  X X S. E
|-----------------------|-----------------------|
|-----------------------|-----------4--3-4-3--1-|
|-----------0-1-0---0-1-|-3-------3-5-----------|
|-3----0--3-------3-----|-3-----0---------------|
|-1----1----------------|-----1-----0-----------|
|-------------------4---|-3---------------------|


  1.
  Q  Q  Q   E E   E E X X S. E E. T T E. T T
|---------------|----------------------------|
|---------------|----------------------------|
|-3--1--0-------|---1-0-1-0------------------|
|-0--0--1-------|---1--------3-1--0-1-0----0-|
|-1--2--3-----1-|-3-------------------1--3---|
|-----------3---|-4---4--------1------1------|


                  2.
  H    Q  E E     Q  E. T T Q  Q
|--------------||-----------------|
|-------------o||-----------------|
|--------------||-3--1--3-1-0-----|
|-1----1--0----||-0---------0--3--|
|------3----1-o||-1---------1--3--|
|-3----4--4----||--------------5--|


  E  E E E E  E X X S. E   E. S E. S E. S E. S
|------------------------|---------------------|
|------------------------|---------------------|
|-------------0----------|-------------------3-|
|-1----0-1-3----3-5-3----|------0---------0----|
|----3-----------------3-|-3---------6----8----|
|-3------3-1-----------1-|-6--6-6--6-6--6-6--6-|


    E  E E E E  E E E   E  E E  S S Q.    S S
||--------------3-3-6-|-6--4------4-----------|
||o----4-4-6-6--------|-4----4------8---------|
||--3-----------------|-5-----------8---------|
||--------------------|-------------------0-8-|
||o-6------6-6------6-|-------------6---------|
||--------------------|-4-------4-------------|


                        1.
  E  E E E E. T T E E   Q   E. S Q.     S S
|---------------------|-1--------------------||
|--------6-8--6-8-6-4-|-3-------------------o||
|----8-8--------------|-3-----------------3--||
|-8--------7--------3-|----------------------||
|-6------6-8----------|-1------1-1------1---o||
|---------------------|-----3----------------||


  2.
  Q   E. S Q   E E   E  E E E E E E E   E  E E E X X E..   E E
|-1----------------|--------------1---|-6------4-6-4-3---------|
|-3------------4-3-|-1------1-3-4-----|--------------------4-3-|
|-3----------------|------1-------3-3-|----0-3-0---------0-3-0-|
|------------------|----1---1---3-----|------------------------|
|-1------1-1-----1-|----------1-------|-6--------6-------------|
|-----3------------|-4----------------|------------------------|
                                        E  E E E E       E E E


                                   D.S.
  E E E  S T T E E E. S   Q   Q  Q.    E
|-----4----3-4-3-1------|----------------|
|-1----------------4--3-|-4--------------|
|-----1------------3----|-0---1--0-------|
|---1----1-------3------|-1------1-------|
|--------------1--------|-----1--------1-|
|-4---------------------|----------------|


Duration Legend
---------------
W - whole; H - half; Q - quarter; E - 8th; S - 16th; T - 32nd; X - 64th; a - acciaccatura
+ - note tied to previous; . - note dotted; .. - note double dotted
Uncapitalized letters represent notes that are staccato (1/2 duration)
Irregular groupings are notated above the duration line
Duration letters will always appear directly above the note/fret number it represents the
duration for.  Duration letters with no fret number below them represent rests.  Multi-
bar rests are notated in the form Wxn, where n is the number of bars to rest for.  Low
melody durations appear below the staff

Tablature Legend
----------------
 h   - hammer-on
 p   - pull-off
 b   - bend
 pb  - pre-bend
 r   - bend release (if no number after the r, then release immediately)
 /\  - slide into or out of (from/to "nowhere")
 s   - legato slide
 S   - shift slide
  - natural harmonic
[n]  - artificial harmonic
n(n) - tapped harmonic
 ~   - vibrato
 tr  - trill
 T   - tap
 TP  - trem. picking
 PM  - palm muting
\n/  - tremolo bar dip; n = amount to dip
 \n  - tremolo bar down
 n/  - tremolo bar up
/n\  - tremolo bar inverted dip
 =   - hold bend; also acts as connecting device for hammers/pulls
 <>  - volume swell (louder/softer)
 x   - on rhythm slash represents muted slash
 o   - on rhythm slash represents single note slash

Misc Legend
-----------
 |  - bar
||  - double bar
||o - repeat start
o|| - repeat end
*|  - double bar (ending)
 :  - bar (freetime)
 $  - Segno
 &  - Coda
Tempo markers -  = BPM(8/16=s8/s16), where s8 = swing 8ths, s16 = swing 16ths


***************************************************************************************
* Generated using Power Tab Editor by Brad Larsen - http://powertab.guitarnetwork.org *
***************************************************************************************
Login or Register to remove this ad.

1 comment on Singing of the Gentle Wind

Thank you so much for making

Thank you so much for making tabs for Xenogears! I even made a recording of your arrangements.