Ship of Regret and Sleep (Xenogears) Guitar Tab

Submitted: Apr 11, 2012 by Tabsarnack

5
Average: 5 (2 votes)
Download | Listen
Game: Xenogears
Composer(s): Yasunori Mitsuda
Style: Arrangement, Fingerstyle
Series: Xeno

This song is also called Ethos Theme

AutoScroll: Slow | Medium | Fast
Title: Ship of Regret and Sleep
SubTitle: Xenogears
Music: Yasunori Mitsuda
Copyright: Ship Of Regret And Sleep (Xenogears)
Tabber: Arrangement by Tabsarnack
Tempo = 120
Xenogears

Legend
L - tied note
x - dead note
h - hammer on/pull off
b - bend
s - slide
~ - vibrato
g - ghost note
> - accentuated note
t - trill
M - palm mute
. - staccato
P - popping (bass)
S - slapping (bass)
+ - tapping
W - wide vibrato
< - fade in
w - whammy bar
= - tremolo picking
v - brush up
^ - brush down
V - pick stroke up
n - pick stroke down

                                                                    
E |--1-----5--3--5-------|--1--0-------|-------------|-------------|
B |--3-----------3-------|--------3----|--2--3--5----|--------2----|
G |----------------------|--------2----|--2-----2----|--2--4--2----|
D |--0-------------------|-------------|-----2-------|--2--2-------|
A |----------------------|-------------|--0----------|--0-----0----|
E |----------------------|-------------|-------------|-------------|

                                                                      
-----0--1----|--1--3--5----|--3----------|-------------|-----8--8----|
--3----------|--1----------|-----6--3----|--2--3--5----|--10---------|
--3-----3----|-------------|-------------|--2--4--6----|--10----10---|
-----3-------|--------3----|--------5----|-------------|-----10------|
--1----------|-----3-------|-----5-------|--0--2--4----|--8----------|
-------------|--1----------|--3----------|-------------|-------------|

                                                                 
--10----8h-6----------|--------8----|--3-----3----|-----5--5----|
--6-----------6h-8----|--10-11------|--6-----5----|--6----------|
----------------------|--10----10---|-----5-------|--7-----7----|
----------------------|-----10------|-------------|-----7-------|
----------------------|--8----------|--3----------|--5----------|
--6-------------------|-------------|-------------|-------------|

                                                                    
--6-----5h-3-----3----|--------8----|--10---|--------------12h10---|
--------------6-------|-----10------|--8----|----------------------|
----------------------|--10----10---|-------|----------------------|
----------------------|--10-10------|-------|----------------------|
--4-------------------|-------------|-------|----------------------|
----------------------|--8----------|--7----|----------------------|

                                                                              
--8--6-------|--3-----3----|--5-----5----|--5---||--1--0-------|--------0----|
--6-----10---|-----6-------|--5-----5----|--2---||--3-----3----|--2--3-------|
-------------|--------5----|-----2-------|-----o||--------3----|--2-----2----|
--------8----|-----5-------|-------------|-----o||-----3-------|-----2-------|
-----8-------|--3----------|--0----------|------||--1----------|--0----------|
--6----------|-------------|-------------|------||-------------|-------------|

                                                          ^
--3--1--0----|--1--3--5----|--6--5--3----|--1-----0----|--1L---|--1----||
--2-----2----|--3-----3----|-------------|--------2----|--3L---|--3----||
-----2-------|-----2-------|-------------|-----2-------|--2L---|--2----||
-------------|--0----------|--------5----|-----2-------|--0L---|--0----||
--4----------|-------------|-----5-------|--0----------|-------|-------||
-------------|-------------|--3----------|-------------|-------|-------||

Login or Register to remove this ad.