June Mermaid (Xenogears) Guitar Tab

Submitted: Jun 12, 2011 by zen03y

5
Average: 5 (5 votes)
Download | Listen
Game: Xenogears
Composer(s): Yasunori Mitsuda
Style: Arrangement, Fingerstyle
Series: Xeno

AutoScroll: Slow | Medium | Fast
Title: June Mermaid
Artist: Yasunori Mitsuda
Album: Xenogears OST
Tabber: xen05z/zen03y (June 6th, 2011)
Tempo = 119.753

Steel or Nylon Guitar

Legend
L - tied note
x - dead note
h - hammer on/pull off
b - bend
s - slide
~ - vibrato
g - ghost note
> - accentuated note
t - trill
M - palm mute
. - staccato
P - popping (bass)
S - slapping (bass)
+ - tapping
W - wide vibrato
< - fade in
w - whammy bar
= - tremolo picking
v - brush up
^ - brush down
V - pick stroke up
n - pick stroke down

                                                                               
D |-------------|--2M----0M---|--2M-3M------------|-------------|-------------|
A |-------------|-----3M------|--------3M---------|-----1M-0M---|-----0M-1M---|
F |--------0M---|-------------|-------------------|--0M---------|-------------|
C |-----4M------|-------------|-------------------|-------------|-------------|
G |-------------|-------------|--3M---------------|-------------|-------------|
D |--0M---------|-------------|-------------------|-------------|--0M---------|

                                                                   
-------------|----------------|-------|-------------|--2-----0----|
-----0M------|-----0M---------|-------|-------------|-----3-------|
--2M----0M---|--2M----2M------|-------|--------0----|-------------|
-------------|----------------|--4M---|-----4-------|-------------|
-------------|--3M------------|-------|-------------|-------------|
-------------|----------------|-------|--0----------|-------------|

                                                        
--2--3-------|-------------|-------------|-------------|
--------3----|--------1----|-----0--1----|-----0-------|
-------------|-----0-------|-------------|--2-----0----|
-------------|--2----------|-------------|-------------|
--3----------|-------------|-------------|-------------|
-------------|-------------|--0----------|-------------|

                                                                                
-------------------------------|-------------|----------------|--------0--5----|
-----------0--1--0-------------|-------------|-----------0----|--1--3----------|
--2-----------------2----------|-------------|-----0--2-------|-----2----------|
-------------------------------|--------0----|-----2----------|----------------|
-------------------------------|-----0-------|--3-------------|--0-------------|
--2----------------------------|--2----------|----------------|----------------|

  ^                                                                 
--3--2----------|----------------|----------------|-----0----------|
--0-----0-------|--0--1----------|--------0--1----|--3-----3--1----|
--------0-------|--------2--0----|-----2----------|--------2-------|
-----------2----|----------------|-----3----------|-----4----------|
-----2----------|-----2----------|----------------|----------------|
--0-------------|----------------|--1-------------|--2-------------|

                                                                    
----------------|--------0-------|--0-------------|--0-------------|
--1-----0-------|--3--------6----|--------0-------|--5-----7--8----|
-----0-----0----|--------4-------|----------------|----------------|
--0-------------|----------------|-----------7----|--------8-------|
-----2----------|-----7----------|-----7----------|-----9----------|
--3-------------|--4-------------|--5-------------|--6-------------|

                                                     ^                   
----------------|----------------|----------------|--7----|--------0----|
--7-------------|-----7--8--10---|--7-------------|--7----|-----0-------|
--8-----6--8----|--9-------------|-----------9----|--8----|-----0-------|
----------------|----------------|--------9-------|-------|--------2----|
-----9----------|----------------|-----9----------|-------|-----2-------|
--7-------------|----------------|--7-------------|-------|--0----------|

                ^                                                     
--2-----0----|--2--3-------|-------------|-------------|-------------|
-----3-------|--0-----3----|--------1----|-----0--1----|-----0-------|
-----0-------|--0----------|-----0-------|-----0-------|--2-----0----|
-------------|-------------|-------------|--------2----|-------------|
-------------|--3----------|-----3--2----|-----2-------|-------------|
-------------|-------------|--0----------|--0----------|-------------|

                                                                          
-------------------------------|-------------|--------0----|--2-----0----|
-----------0--1--0-------------|-----1--3----|-----0-------|-----3-------|
--2-----------------2----------|-------------|-----0-------|-----0-------|
--0----------------------------|--------4----|--------2----|-------------|
-------------------------------|-----2-------|-----2-------|-------------|
--2----------------------------|--2----------|--0----------|-------------|

  ^                                                     
--2--3-------|-------------|-------------|-------------|
--0-----3----|--------1----|-----0--1----|-----0-------|
--0----------|-----0-------|-----0-------|--2-----0----|
-------------|-------------|--------2----|-------------|
--3----------|-----3--2----|-----2-------|-------------|
-------------|--0----------|--0----------|-------------|

                                                                                
-------------------------------|-------------|----------------|--------0--5----|
-----------0--1--0-------------|--7----------|-----------0----|--1-------------|
--2-----------------2----------|-----7-------|-----0--2-------|-----2-----2----|
--0----------------------------|--------7----|-----2----------|--------3-------|
-------------------------------|-------------|--3-------------|----------------|
--2----------------------------|-------------|-----------0----|--1--------1----|

  ^                ^                          
--3--2----------|--0-------------------------|
--0-----3-------|--------3--5----------------|
--0--------4----|--2-----------2-----0-------|
----------------|--0-------------------------|
-----2----------|----------------------------|
--0-------------|----------------------------|

                                                     
----------------------------------------------------|
--7h-5h-7L----------------------7L----------7L------|
----------------------------------------------------|
--0-------------------------------------------------|
----------------------------------------------------|
----------------------------------------------------|

                                                          
----------------------------|--------------0-------------|
--7~------------------------|--0--------0-----------0----|
----------------------------|--------2-----------2-------|
----------------------------|-----2-----------2----------|
--------------------0M-2M---|--3-----------3-------------|
--------------0-------------|----------------------------|

                                                          
--------------0-------------|--------------0-------------|
-----------0-----------0----|--0--------0-----------0----|
--------2-----------2-------|--------2-----------2-------|
-----2-----------2----------|-----2-----------2----------|
--3-----------3-------------|--4-----------4-------------|
----------------------------|----------------------------|

                                                          
--0-----------3-----2-------|--5-------------------------|
-----------0-----------0----|--------5-----------5-------|
--------2-----------2-------|-----4-----4-----4-----4----|
-----2-----------2----------|----------------------------|
--4-----------4-------------|--3-----------3-------------|
----------------------------|----------------------------|

                                                          
--------------3--------5----|--4--------4----------------|
--------5-----------5-------|--------5-----------5-------|
-----4-----4-----4----------|-----4-----------4-----4----|
----------------------------|----------------------------|
--3-----------3-------------|--4-----------4-------------|
----------------------------|----------------------------|

                                                          
--4-----------4-----7-------|--0-----------0-------------|
--------5-----------5-------|-----------0-----------0----|
-----4-----4-----4-----4----|--------2-----------2-------|
----------------------------|-----2-----------2----------|
--4-----------4-------------|--3-----------3-------------|
----------------------------|----------------------------|

                                                           
--0-----------------0-------|-----------0M----------0----||
--0--------0--3--------0M---|--0M------------------------||
--------2-----------2M------|--------2M----------2M------||
-----2-----------2M---------|-----2M----------2M---------||
--3-----------3M------------|--2M----------2M------------||
----------------------------|----------------------------||

                                                         
----------0-----------0---||-----------0-----------0----|
-0------------------------||--0-----------------0-------|
o------2-----------2-----o||--------2-------------------|
o---2-----------2--------o||-----2-----------2----------|
-2-----------2------------||--2-----------2-------------|
--------------------------||----------------------------|

                                                       ^
----------------------------------------------------|--0L---|--0----||
--7h-5h-7L----------------------7-----------7-------|--0----|-------||
----------------------------------------------------|--0----|-------||
----------------------------------------------------|--2----|-------||
----------------------------------------------------|-------|-------||
--7-------------------------------------------------|-------|-------||
Login or Register to remove this ad.

1 comment on June Mermaid

Why didn't I see this before!

5

Why didn't I see this before! That was fantastic!