June Mermaid (Xenogears) Guitar Tab

Submitted: Sep 11, 2010 by Kabukibear (Last updated: Sep 11, 2010)

5
Average: 5 (8 votes)
Download | Listen
Game: Xenogears
Composer(s): Yasunori Mitsuda
Style: Arrangement, Fingerstyle
Series: Xeno

AutoScroll: Slow | Medium | Fast
June Mermaid                                   
~Xenogears~
Composed By: Yasunori Mitsuda
Arranged By: Justin Lincoln

Drop D Tuning

     Q    Q    Q    Q    Q    Q         Q    Q    Q    Q    Q    Q     
E||-----------------0--------------||---0----1------------------------|
B||----------------------1----3----||-------------1-------------------|
G||------------0-------------------||*----------------------0----3----|
D||-------3----2---------3---------||*------------3-------------------|
A||-------0---------0---------0----||--------1---------1---------1----|
D||--0-----------------------------||---0-----------------------------|


                                           |--3-|                       
  Q    Q    Q    Q    Q    Q       Q    E  S S  S  Q    Q    Q    Q     
--------------------------------|--------------------------------------|
--------------------------------|--------------------------------------|
-------2----3----0----2---------|--0----2--L-0h-2p-0-------------------|
------------2---------0----3----|------------------2---------0----2----|
-------0---------0---------0----|-------1--L------------1---------1----|
--0-----------------------------|--0-----------------------------------|


  Q    Q    Q    Q    Q    Q       Q    Q    Q    Q    Q    Q     
-----------------0--------------|--0----1------------------------|
----------------------1----3----|------------1-------------------|
------------0-------------------|----------------------0----3----|
-------3----2---------3---------|------------3-------------------|
-------0---------0---------0----|-------1---------1---------1----|
--0-----------------------------|--0-----------------------------|


                                           |--3-|                       
  Q    Q    Q    Q    Q    Q       Q    E  S S  S  Q    Q    Q    Q     
--------------------------------|--------------------------------------|
--------------------------------|--------------------------------------|
-------2----3----0----2---------|--0----2--L-0h-2p-0-------------------|
------------2---------0----3----|------------------2---------0----2----|
-------0---------0---------0----|-------1--L------------1--------------|
--0-----------------------------|--0-----------------------------------|

                                                1st Ending---
  Q    Q    Q    Q       Q    Q    Q    Q       Q    Q    Q    Q     
----------------------|-----------------3----|--1----0--------------|
----------------------|------------3---------|----------------------|
------------0----2----|--3----5----0---------|------------2---------|
-------3--------------|----------------------|------------3---------|
--1--------------1----|----------------------|-------0---------0----|
----------------------|--5-------------------|--0-------------------|


  Q    Q    Q    Q       Q    Q    Q    Q       Q    Q    Q    Q     
----------------------|----------------------|----------------------|
----------------------|----------------------|--1----3----3---------|
----------------------|-------0----2----3----|-----------------3----|
--2---------0---------|------------3---------|------------0---------|
-------0---------0----|-------1--------------|-------1--------------|
----------------------|--1-------------------|--2-------------------|


                                                ^                    
  Q    Q    Q    Q       Q    Q    Q    Q       Q    Q    Q    Q     
----------------------|----------------------|----------------------|
----------------------|------------3----4----|--3-------------------|
--3---------2---------|--5-------------------|--3---------2----0----|
----------------------|-------0--------------|--0----0--------------|
-------3---------3----|----------------------|----------------------|
--3-------------------|--4--------------4----|--5-------------------|


  Q    Q    Q    Q       Q    Q    Q    Q       Q    Q    Q    Q     
------------0---------|----------------------|----------------------|
-----------------6----|--6-------------------|----------------------|
--7-------------------|----------------------|----------------------|
------------6---------|----------------------|-------0----2----3----|
-------7--------------|--0---------0----2----|--4-------------------|
--6-------------------|-------2--------------|----------------------|


  ^                                                                          
  H        H           H        H           Q    Q    Q    Q    Q    Q       
--0-----------------|--------------------|-----------------0---------------||
--2-----------------|--------------------|----------------------1----3-----||
--2--------3--------|--2--------0--------|--2---------0-------------------*||
--2-----------------|--------------------|-------3----2---------3---------*||
--------------------|--------------------|-------0---------0---------0-----||
--------------------|--------------------|--0------------------------------||

  2nd Ending---  Rit...
       |--3--|                      |--3--|                                   
  Q    S  S  S E  Q    Q       Q    S  S  S E  Q    Q       W                 
--1----0h-1p-0-L------------|----------------------------|-------------------|
----------------------------|--3----1h-3p-1-L------------|-------------------|
------------------2---------|------------------0---------|-------------------|
------------------3----2----|-----------------------3----|--2----------------|
-------0--------------------|--3-------------------------|--3----------------|
--0-------------------------|----------------------------|-------------------|

 Briskly
  E  E  E   E  E  E  E   E     E  E  E   E  E  E  E   E   
----------------------------|---------------3------------|
---------------3------------|--3------------3------------|
--------0h--2--------0h--2--|--------0h--2--------0h--2--|
-----0------------0---------|-----0------------0---------|
----------------------------|----------------------------|
--1-------------------------|----------------------------|


  E  E  E   E  E  E  E   E     E  E  E   E  E  E  E   E   
--2------------------3------|---------------5------------|
--3------------3------------|--3------------3------------|
--------0h--2--------0h--2--|--------0h--2--------0h--2--|
-----0------------0---------|-----0------------0---------|
---------------------2------|---------------0--2---------|
--2-------------------------|------------2--------2------|


  E  E  E   E  E  E  E   E     E  E  E   E  E  E  E   E   
----------------------------|----------------------------|
--3------------3------------|--3------------1-----3------|
--------0h--2--------0h--2--|--------0h--2--------0h--2--|
-----0------------0---------|-----0------------0---------|
---------------------1------|----------------------------|
--1-------------------------|---------------1------------|


  E  E  E   E  E  E  E   E     E  E  E   E  E  E  E   E   
----------------------------|----------------------------|
---------------3------------|--3------------3------------|
--2-----0h--2--------0h--2--|--------0h--2--------0h--2--|
-----0------------0---------|-----0---------2--0---------|
---------------------0------|------------0--------0------|
--0-------------------------|----------------------------|


  E  E  E   E  E  E  E   E     E  E  E   E  E  E  E   E   
--3-------------------------|----------------------------|
--3------------3------------|--3------------3------------|
--------0h--2--------0h--2--|--------0h--2--------0h--2--|
-----0------------0---------|-----0------------0---------|
---------------------1------|----------------------------|
--1-------------------------|---------------1------------|


  E  E  E   E  E  E  E   E     E  E  E   E  E  E  E   E   
--2------------------3------|---------------5------------|
--3------------3------------|--3------------3------------|
--------0h--2--------0h--2--|--------0h--2--------0h--2--|
-----0------------0---------|-----0------------0---------|
---------------------2------|---------------0--2---------|
--2-------------------------|------------2--------2------|


  E  E  E   E  E  E  E   E     E  E  E   E  E  E  E   E   
----------------------------|----------------------------|
--3------------3------------|--3------------1-----3------|
--------0h--2--------0h--2--|--------0h--2--------0h--2--|
-----0------------0---------|-----0------------0---------|
---------------------1------|----------------------------|
--1-------------------------|---------------1------------|

                                                                        D.C.
                                                            ^                  
  E  E  E   E  E  E  E   E     E  E  E   E  E  E  E   E     W                  
----------------------------|----------------------------|--0----------------||
---------------3------------|--3------------3------------|--3----------------||
--2-----0h--2--------0h--2--|--------0h--2--------0h--2--|--2----------------||
-----0------------0---------|-----0------------0---------|-------------------||
----------------------------|---------------0--2--0------|-------------------||
--0-------------------------|--2-------------------------|--2----------------||




Duration Legend
---------------
W - whole
H - half
Q - quarter
E - 8th
S - 16th
T - 32nd
X - 64th
. - note dotted
|-n-|  - n-tuplets


Tablature Legend
----------------
L - tied note
h - hammer on
p - pull off
^ - brush up
v - brush down
D.C. - go back to the beginning
Login or Register to remove this ad.

4 comments on June Mermaid

awesomely eery, lovely to

awesomely eery, lovely to listen to. Fantastic as always, keep it up.

amazing

Best rendition of this song i've seen by far.
A video for it would be killer.

Great job on the tab.

easy

5

the ending isnt easy for me at all -_-
but i keep working at it!

One of my favorite game

One of my favorite game pieces ever, I love the sad, timeless atmosphere it gives, makes me think of a lonely shore that contains some great meaning somehow