Login or Register to remove this ad.

Gathering Stars in the Night Sky (Xenogears) Guitar Tab

Submitted: Jun 24, 2009 by Kabukibear (Last updated: Jan 06, 2010)

4.87879
Average: 4.9 (33 votes)
Download | Listen
Game: Xenogears
Composer(s): Yasunori Mitsuda
Style: Arrangement, Fingerstyle
Series: Xeno

AutoScroll: Slow | Medium | Fast
Gathering Stars In The Night Sky                         
~Xenogears~
Composed by: Yasunori Mitsuda
Arranged by: Justin Lincoln


 (Capo 1)

     Bpm = 72

     ^        ^                    ^        ^                
     E  E  E  E  E  E  S  S  E     E  E  E  E  E  E  E   E   
E||--5--3--5--------------------|--------3------------------|
B||--0--------3--L-----0h-1h-3--|--3--1-----0--L------------|
G||--0--------2--L-----------0--|--0--------------2--0h--2--|
D||-----------------0-----------|-----------4--L------------|
A||-----------2--L--------------|--3--------5--L-----0------|
E||--3--------------------------|---------------------------|


  ^        ^                              ^         
  E  E  E  E  E  E  E   E     E  E  E  E  H         
--------0------------------|-----------3--2--------|
--0------------------------|--------3-----3--------|
--0--------2--L-----0h--2--|--L--2--------2--------|
-----------2--L------------|--0-----------0--------|
-----2-----------3---------|-----------------------|
--0--------1--L------------|-----------------------|

    A Tempo
    E  E  E  E  E  E  E  E     E  E  E  E  E  E  E  E   
|---------------------------|--------------------0--2--|
|---0-----3-----------------|--------3-----------------|
|*--------0-----2-----4-----|--2-----2-----0-----------|
|*-----0-----0-----0-----0--|-----0-----0-----0--4--0--|
|---------------------------|--------------------------|
|---3-----------------------|--2-----------------------|


                             ^                        
  E  E  E  E  E  E  E  E     E  E  E  E  E  E  E  E   
--3--5--2-----------------|--0-----------------0--2--|
--0--------3--L-----0--3--|--1--------1--L-----------|
--0-----------------------|--------0--------0--------|
--------------------0--4--|-----2--------------------|
-----------------2--------|--3-----------------3-----|
--0-----------------------|--------------------------|


  E  E  E  E  E  E  E  E     E  E  E  E  E  E  E  E   
--------------------------|--------------------------|
--3-----------0-----------|--------------0-----3-----|
--------0--2--------0-----|--------2-----------------|
-----0-----------0-----0--|-----0-----0-----0-----0--|
--------------------------|--------------------------|
--3-----------3-----------|--3-----------------3-----|


                                                              ^    ^            
  E  E  E  E  E  E  E  E     E  E  E  E  E  E  E  E     E  E  Q    E  E  E.  S  
--------------------------|--------------------------|--------3----2--0--------|
--1-----------------------|--------------------0-----|--------0----------3-----|
--------2-----------------|--------------0--2-----2--|--0-----0----0---------5-|
--------3--------------3--|--------3-----------3-----|--------2----------------|
-----3-----3--L-----3-----|-----3-----3-----3-----3--|-----2-------3-----3-----|
--1--------------1--------|--1-----------------------|--0----------------------|


  ^                                                   
  E  E  E  E  E  E  E  E     E  E  E  E  E  E  E  E   
--------------------------|--------3-----------------|
--3--------5--------0--3--|--1-----------0--------0--|
--2-----2-----0--2-----0--|--------2-----------2-----|
-----4--------------2-----|-----2-----2-----2--------|
--2--------------2--------|--0-----------------------|
--------------0-----------|--------------------------|


  E  E  E  E    Q    E  E     E  E  E  E  E  E  E  E   
--------5------------3--2--|--3-----------------------|
--1-----3--5--5g/7---------|-----------0--------------|
-----2---------------------|--------2-----2--0-----0--|
--0------------------------|-----0--------------0-----|
---------------------------|--------------------------|
---------------------------|--3-----------------------|

  Crescendo ------------
  E  E  E  E  E  E  E  E     E  E  E  E  E  E  E  E   
--------------------------|-----------0--------------|
--------------------------|--0-----------3--------0--|
--------0--2--0-----2-----|--------------------4-----|
-----0-----------0-----0--|--------2--------4--------|
--------------------------|-----2--------2-----------|
--3-----------3-----2-----|--0-----------------------|


              ^                                       
  E  E  E  E  E  E  E  E     E  E  E  E  E  E  E  E   
--------0-----------------|--------------------------|
--1--3--1--0-----0--------|--------3-----3-----------|
-----0--------2-----0-----|--0-----------------0--5--|
--------------0--------4--|--------2--------2--------|
--3-----------------------|-----2-----2--3-----------|
--------------3-----2-----|--0-----------------------|


  E  E  E  E  E  E  E  E     E  E  E  E  E  E  E  E   
--------------------------|-----------0--------------|
--------------------------|--0-----------3--------0--|
--2--------0--------0--2--|--------------------4-----|
--0-----0-----4-----------|--------2--------4--------|
-----0-----------5--0-----|-----2--------2-----------|
-----------------------2--|--0-----------------------|


              ^                          ^                          ^          
  E  E  E  E  E  E  E  E     E  E  E  E  E  E  E  E     E  E  E  E  Q.     E   
--------0-----------------|--------------3--------5--|--5--------3--2---------|
--1--3--1--0-----0--------|--------3-----0-----1-----|--------3-----3---------|
-----0--------2-----0-----|--0--------------0--------|-----2--------2------2--|
--------------0--------4--|--------0--4--------------|--0-----------0---------|
--3-----------------------|-----2--------3-----------|------------------------|
--------------3-----2-----|--0-----------------------|------------------------|


  Rit.  ------------------     ^                  
  E  E  E  E  E  E  E  E       W                  
--2--------3--------5------||--3----------------||
--3--------3--------3------||--0----------------||
--------2--------2-----2--*||--0----------------||
-----0--------0-----------*||--0----------------||
---------------------------||-------------------||
---------------------------||--3----------------||




Duration Legend
---------------
W - whole
H - half
Q - quarter
E - 8th
S - 16th
T - 32nd
X - 64th
. - note dotted
|-n-|  - n-tuplets


Tablature Legend
----------------
L - tied note
g - grace note
/ - slide
^ - brush up
Crescendo - gradually get louder
Rit. - gradually slow down
A Tempo - Play at the original tempo
Login or Register to remove this ad.

8 comments on Gathering Stars in the Night Sky

5 starz

5

Beautiful piece, nicely arranged

<3 this

5

<3 this

I wanted to play this ever

5

I wanted to play this ever since I heard the (only) fingerstyle version on Youtube by a Brazilian guy. Thanks for arranging this.

A few minor changes: Measure

A few minor changes:

Measure 2: Fingering change, the 7 was unnecessary.

Measure 7: Took out the strum.

Measure 8: The B has been changed to C, I didn't like the dissonance there.

Measure 10: The G has been dropped an octave to give motion in the bass and to help stop the nasty string press dissonance when ringing open strings move into barre chords.

Measure 13-14: Fingering change to make barring easier.

Measure 21: Fingering change to help control the melody.

I think that's it!

GREAT

5

Beatiful song and a great tab nice job man

Lovely

5

This is one of my early favorites. I love your tabs, Justin. They sound beautiful, and tend to be just the right level of challenge. I made a video recording of this one.

Beautiful song, I love

5

Beautiful song, I love playing it.

Still one of my favorite

5

Still one of my favorite songs on this site