Ads

Dazil - City of Burning Sands (Xenogears) Bass/Guitar Tab

Submitted: Aug 21, 2013 by Calebelijah

4
Average: 4 (1 vote)
Download | Listen
Game: Xenogears
Composer(s): Yasunori Mitsuda
Style: Transcription
Series: Xeno

Click here for a video example.

AutoScroll: Slow | Medium | Fast
Title: Dazil, City of Burning Sands
Album: Xenogears
Tempo = 80



Melody

E |----|----|----|----|----||
B |----|----|----|----|----||
G |----|----|----|----|----||
D |----|----|----|----|----||
A |----|----|----|----|----||
E |----|----|----|----|----||


--------------------------------------------------------------------------------
----------------------------5-----------6-----------8---------------------------
o-4/5-----------------5---------------------------------------------------------
o-------------------------------------------------------------------------------
--------------------------------------------------------------------------------
--------------------------------------------------------------------------------


----------------------|----------------------------------------------------|
--------9-------------|--11----9.----11----9.----8h-9h-8-----8-------------|
----------------------|-----------------------------------10---------------|
----------------------|----------------------------------------------------|
----------------------|----------------------------------------------------|
----------------------|----------------------------------------------------|


--------------------------------------------------------------------------------
--------------------------5-----------6-----------8-----------6h-8h-6-----5-----
--5-----------------5-----------------------------------------------------------
--------------------------------------------------------------------------------
--------------------------------------------------------------------------------
--------------------------------------------------------------------------------


--------------------|
--------------------|
------5-------------|
--------------------|
--------------------|
--------------------|


--------------------------------------------------------------------------------
--------------------------------------------------------------------------------
--------5-----6-----------5------------------------4/5--------------------------
--8-----------------------------------8-----------------------------------------
--------------------------------------------------------------------------------
--------------------------------------------------------------------------------


-----------------------|
-----------------------|
-----------------------|
-----------------------|
-----------------------|
-----------------------|


--------------------------------------------------------------------------------
-----------------------------5-----------6-----------8--------------------------
--4/5-----------------5--------------------------------------------------------
--------------------------------------------------------------------------------
--------------------------------------------------------------------------------
--------------------------------------------------------------------------------


-----------------------|----------------------------------------------------|
---------9-------------|--11----9.----11----9.----8h-9h-8-----8-------------|
-----------------------|-----------------------------------10---------------|
-----------------------|----------------------------------------------------|
-----------------------|----------------------------------------------------|
-----------------------|----------------------------------------------------|


--------------------------------------------------------------------------------
--------------------------5-----------6-----------8-----------6h-8h-6-----5-----
--5-----------------5-----------------------------------------------------------
--------------------------------------------------------------------------------
--------------------------------------------------------------------------------
--------------------------------------------------------------------------------


--------------------|
--------------------|
------5-------------|
--------------------|
--------------------|
--------------------|


--------------------------------------------------------------------------------
--------------------------------------------------------------------------------
--------5-----6-----------5-----------------------4/5---------------------------
--8-----------------------------------8-----------------------------------------
--------------------------------------------------------------------------------
--------------------------------------------------------------------------------


-----------------------|--8--------6----------------|
-----------------------|--------------8--------6----|
-----------------------|----------------------------|
-----------------------|----------------------------|
-----------------------|----------------------------|
-----------------------|----------------------------|


----------------------------|--8-----6--8----------------|
--8--9--8--6--5--6--8-------|--------------8--------8----|
----------------------------|----------------------------|
----------------------------|----------------------------|
----------------------------|----------------------------|
----------------------------|----------------------------|


--6-----6-----6--8----------|
-----9-----9--------8-------|
----------------------------|
----------------------------|
----------------------------|
----------------------------|


--6/8------------------------6-----------8-----------8--9-----------8h-9h-8-----
--------------------------------------------------------------------------------
--------------------------------------------------------------------------------
--------------------------------------------------------------------------------
--------------------------------------------------------------------------------
--------------------------------------------------------------------------------


6-------------------------|----------------------------|
------------9-------------|--8--9--8--6--5--6--8-------|
--------------------------|-----------------------5----|
--------------------------|----------------------------|
--------------------------|----------------------------|
--------------------------|----------------------------|


--------------------8--9----|--8----|
--------5--6--8--9----------|-------|
--5--6----------------------|-------|
----------------------------|-------|
----------------------------|-------|
----------------------------|-------|


--8-----8-----------6-----------8s------------------|
--8-----8-----------6-----------8s------------------|
----------------------------------------------------|
----------------------------------------------------|
----------------------------------------------------|
----------------------------------------------------|


--8-----8-----------6-----------9s------------------|
--8-----8-----------6-----------9s------------------|
----------------------------------------------------|
----------------------------------------------------|
----------------------------------------------------|
----------------------------------------------------|


--8-----8-----------6-----------8s------------------|
--8-----8-----------6-----------8s------------------|
----------------------------------------------------|
----------------------------------------------------|
----------------------------------------------------|
----------------------------------------------------|


--8-----8-----------6-----9s----------9s------------|----|----|----|----|----|
--8-----8-----------6-----9s----------9s------------|----|----|----|----|----|
----------------------------------------------------|----|----|----|----|----|
----------------------------------------------------|----|----|----|----|----|
----------------------------------------------------|----|----|----|----|----|
----------------------------------------------------|----|----|----|----|----|


----|----|---|||
----|----|---|||
----|----|--o|||
----|----|--o|||
----|----|---|||
----|----|---|||




BG Guitar
                      v                                                 
     H        Q    E  E     W                   H        S S. S. E.  S  
E||-------------------3--|--L----------------|-------------------0-----|
B||-------------------3--|--L----------------|-------------1--2------2-|
G||-------------------5--|--L----------------|-------------------------|
D||-------------------5--|--L----------------|-------------------------|
A||-------------------3--|--L----------------|-------------------------|
E||----------------------|-------------------|-------------------------|


  E  T T H.           S    W                                                   
------------------------|-------------------||--------|-------|-------|-------|
--L--1-2-1------------L-|--L----------------||--------|-------|-------|-------|
------------------------|-------------------||*-------|-------|-------|-------|
------------------------|-------------------||*-------|-------|-------|-------|
------------------------|-------------------||--------|-------|-------|-------|
------------------------|-------------------||--------|-------|-------|-------|


                                          H.           S S S S  
-------|-------|-------|-------|-------|-----------------------|
-------|-------|-------|-------|-------|-----------------5-6-5-|
-------|-------|-------|-------|-------|-----------------------|
-------|-------|-------|-------|-------|-----------------------|
-------|-------|-------|-------|-------|-----------------------|
-------|-------|-------|-------|-------|-----------------------|


  |--3--|                                                                  
  E  E  H        H           H.           S S S S    E  S H        Q    S  
--------------------------|-----------------------|-----------------------|
--6--5--1--------L--------|-----------------1-2-1-|--2--1-1--------L----L-|
--------------------------|-----------------------|-----------------------|
--------------------------|-----------------------|-----------------------|
--------------------------|-----------------------|-----------------------|
--------------------------|-----------------------|-----------------------|


          E  E  E  E  E  E   E   S  S     H.            E   S S  
-------|--------3--4--7--8--12--13-12-|---L-------------L---L---|
-------|--5--6------------------------|-----------------------1-|
-------|------------------------------|-------------------------|
-------|------------------------------|-------------------------|
-------|------------------------------|-------------------------|
-------|------------------------------|-------------------------|


  S  S S  S S  S S  S S  S S  S S  S S  S  
------------------------------------------|
--2p-1-2p-1-2p-1-2p-1-2p-1-2p-1-2p-1-2p-1-|
------------------------------------------|
------------------------------------------|
------------------------------------------|
------------------------------------------|


  S  S S  S S  S S  S S  S S  S S  S S  S  
------------------------------------------|
--2p-1-2p-1-2p-1-2p-1-2p-1-2p-1-2p-1-2p-1-|
------------------------------------------|
------------------------------------------|
------------------------------------------|
------------------------------------------|


  S  S S  S S  S S  S S  S S  S S  S S  S  
------------------------------------------|
--2p-1-2p-1-2p-1-2p-1-2p-1-2p-1-2p-1-2p-1-|
------------------------------------------|
------------------------------------------|
------------------------------------------|
------------------------------------------|


  S  S S  S S  S S  S S  S S  S S  S S  S                                  
------------------------------------------|-------|-------|-------|-------|
--2p-1-2p-1-2p-1-2p-1-2p-1-2p-1-2p-1-2p-1-|-------|-------|-------|-------|
------------------------------------------|-------|-------|-------|-------|
------------------------------------------|-------|-------|-------|-------|
------------------------------------------|-------|-------|-------|-------|
------------------------------------------|-------|-------|-------|-------|


-------|-------|-------|--------||
-------|-------|-------|--------||
-------|-------|-------|-------*||
-------|-------|-------|-------*||
-------|-------|-------|--------||
-------|-------|-------|--------||




Bass
             E.  H        E  S E     Q.     E.  E  S E  S S  
G||-------|-----------------------|-------------------------|
D||-------|------------------x-5--|--3------5---6----8--6-5-|
A||-------|--3---3--------L-------|----------------3--------|
E||-------|-----------------------|-------------------------|


  E.  H        E.  E     E  S E  S E  S E  S E  S S  
----------------------|-----------------------------|
----------------------|-----------------------------|
--3---3--------L---1--|--3----4----3----1----1----1-|
----------------------|-----3----3----1----1----4---|


    E  E  Q    S S S S E  S S    E  E  Q    S E.  Q     
|----------------------3------|------------------------|
|*-----------------5-6----6-5-|------------------------|
|*--3--3---------3------------|--3--3---------1---3----|
|-----------------------------|------------------------|


  E  E  Q    S S S S E  S S    E  E  Q    S S S S S S S S  
---------------------3------|---------------5-------------|
-----------------5-6----6-5-|-----------------8-6-5-6-5---|
--3--3---------3------------|--3--3---------------------8-|
----------------------------|-----------------------------|


  E  E  Q    S E.  Q       E  E  Q    S S S S S S S S  
------------------------|-----------------------------|
------------------------|---------------5-6-8-6-5-3-5-|
--3--3---------1---3----|--3--3-----------------------|
------------------------|-----------------------------|


  E  E  Q    S S E  S E.     E  E  Q    S S S S E  S S  
--------------------------|-------------------5-5--3-5-|
--------------------------|---------------5-6----------|
--3--3---------3-1--3-4---|--3--3----------------------|
--------------------------|----------------------------|


  E  E  Q    S S S S E  S S    E  E  Q    S E.  Q     
---------------------3------|------------------------|
-----------------5-6----6-5-|------------------------|
--3--3---------3------------|--3--3---------1---3----|
----------------------------|------------------------|


  E  E  Q    S S S S S S S S    E  E  Q    S S S S S E.   
-----------------------------|---------------------------|
---------------5-6-8-6-5-3-5-|---------------------------|
--3--3-----------------------|--3--3---------3-1-0-3-4---|
-----------------------------|---------------------------|


  E  E  Q    S S E  S E.     E  E  Q    S S S S S S E   
--------------------------|-------------------------0--|
--------------------------|---------------------2-3----|
--3--3---------3-1--1-1---|--3--3---------1-3-4--------|
--------------------------|----------------------------|


  E  E  Q    E  S S S E.     E  E  Q    S S S E  S S S  
--------------------------|---------------0-1----0-1-0-|
--------------------------|----------------------------|
--3--3----------3---3-1---|--3--3----------------------|
--------------------------|----------------------------|


  E  E  Q.     S E  E.     E  E  Q    E  E.  E.     E  E  Q.     S E  E.   
------------------------|------------------------|------------------------|
------------------------|------------------------|------------------------|
--3--3---------3----1---|--3--3----------4---4---|--3--3---------3----1---|
------------------------|------------------------|------------------------|


  E  E  Q    Q    Q       E  S S S Q    S E.  S E     E  E  E  E  E  S S E  E   
-----------------------|---------------------------|--------------3------------|
-----------------------|---------------------------|-----5--6--5-----6-5-6--5--|
--3--3-------4----4----|--3--3-3-3------3-1---1-1--|--3------------------------|
-----------------------|---------------------------|---------------------------|


  E  E  E  E  E  S E  S E     E  E  E  E  E  S E  S E   
---------------------------|--------------0--1-0--1-0--|
---------------------------|--------2--3---------------|
--3--3-----3--3--1-1--1-1--|--3--4---------------------|
---------------------------|---------------------------|


  E  E  E  E  S E  E  S E     E  E  E  E  S S E  S E  S  
---------------------------|----------------0-1--0-1--0-|
---------------------------|--------2--3----------------|
--3--3-----1--3----4--4-4--|--3--4----------------------|
---------------------------|----------------------------|


  E  E  E  E  E  E  E  E     E  E  E  E  S E.  Q       
--------------------------|--------------------------||
--------------------3-----|-------------------------*||
--3--3-----1--3--4-----4--|--3--3-----1--3----------*||
--------------------------|--------------------------||
Login or Register to remove this ad.