Ads

Bonds of Sea and Fire (Xenogears) Guitar Tab

Submitted: Aug 26, 2013 by Calebelijah (Last updated: Aug 27, 2013)

4
Average: 4 (1 vote)
Download | Listen
Game: Xenogears
Composer(s): Yasunori Mitsuda
Style: 2 or more instruments, Alternate picking, Transcription
Series: Xeno

Click here for a video example.

AutoScroll: Slow | Medium | Fast
Title: Yggdrasil (soft)
Album: Xenogears
Tempo = 80
Melody




E |----|----|----|----||---------------------|-----------------5----|
B |----|----|----|----||-5-----5-----5-------|--5-----5-----5-------|
G |----|----|----|----||o---------7----------|-----------7----------|
D |----|----|----|----||o---------------7----|----------------------|
A |----|----|----|----||---------------------|----------------------|
E |----|----|----|----||---------------------|----------------------|


----------------------|
--8-----8--7--8--5----|
----------------------|
----------------------|
----------------------|
----------------------|


----------------------------------------------------------------------------|
--7-----------5h-7h-5-----------------5-------------------------------------|
--------------------------7-------------------------------------------------|
--------------------------------------------------7-----------5-------------|
----------------------------------------------------------------------------|
----------------------------------------------------------------------------|


----------------------|-----------------5----|-----------------5----|
--5-----5-----5-------|--5-----5-----5-------|--8-----8--7--8-------|
-----------7----------|-----------7----------|----------------------|
-----------------7----|----------------------|----------------------|
----------------------|----------------------|----------------------|
----------------------|----------------------|----------------------|


--5s-7---------------|||
--------8--10-10-----|||
--------------------o|||
--------------------o|||
---------------------|||
---------------------|||


-8-----------------------8-----------------------7h-8h-7-----------5------------|
--------------------------------------------------------------------------------|
o-------------------------------------------------------------------------------|
o-------------------------------------------------------------------------------|
--------------------------------------------------------------------------------|
--------------------------------------------------------------------------------|


--7-----------------------7-----------------------5--7--5-----------------------
--------------------------------------------------------------------8-----------
--------------------------------------------------------------------------------
--------------------------------------------------------------------------------
--------------------------------------------------------------------------------
--------------------------------------------------------------------------------


--|--5-----5-------------|--------------5--7----|
--|--------------8--7----|--8--5--7--8----------|
--|----------------------|----------------------|
--|----------------------|----------------------|
--|----------------------|----------------------|
--|----------------------|----------------------|


--8-----------------------8-----------------------7h-8h-7-----------5-----------|
--------------------------------------------------------------------------------|
--------------------------------------------------------------------------------|
--------------------------------------------------------------------------------|
--------------------------------------------------------------------------------|
--------------------------------------------------------------------------------|




--7-----------------------7-----------------------5--7--5-----------------------
--------------------------------------------------------------------8-----------
--------------------------------------------------------------------------------
--------------------------------------------------------------------------------
--------------------------------------------------------------------------------
--------------------------------------------------------------------------------


--|--5L---|--5-----7---||--5L---|--5--------------5----|--7L---|--7----||
--|-------|------------||-------|--------------8-------|-------|-------||
--|-------|-----------o||-------|----------------------|-------|-------||
--|-------|-----------o||-------|----------------------|-------|-------||
--|-------|------------||-------|----------------------|-------|-------||
--|-------|------------||-------|----------------------|-------|-------||




High ARPEGGIOS (Electric)
                                                                    
E |--12----10-------10---|--12----10-------10---|--12----10-------10---|
B |-----12----10-12------|-----12----10-12------|-----12----10-12------|
G |----------------------|----------------------|----------------------|
D |----------------------|----------------------|----------------------|
A |----------------------|----------------------|----------------------|
E |----------------------|----------------------|----------------------|

                                                                     
--12----10-------10---||-12----10-------10---|--12----10-------10---|
-----12----10-12------||----12----10-12------|-----12----10-12------|
----------------------||o--------------------|----------------------|
----------------------||o--------------------|----------------------|
----------------------||---------------------|----------------------|
----------------------||---------------------|----------------------|

                                                                     
--12----10-------10---|--12----10-------10---|--12----10-------10---|
-----12----10-12------|-----12----10-12------|-----12----10-12------|
----------------------|----------------------|----------------------|
----------------------|----------------------|----------------------|
----------------------|----------------------|----------------------|
----------------------|----------------------|----------------------|

                                                                      
--12----10-------10---|--12----10-------10---|--12----10-------10--|||
-----12----10-12------|-----12----10-12------|-----12----10-12-----|||
----------------------|----------------------|--------------------o|||
----------------------|----------------------|--------------------o|||
----------------------|----------------------|---------------------|||
----------------------|----------------------|---------------------|||

                                                                    
----------------12---|-----------------10---|----------------------|
----------12-13------|-----------10-12------|----------------------|
o------14------------|--------12------------|--------------9--11---|
o---14---------------|-----12---------------|-----------12---------|
-12------------------|--10------------------|-----10-12------------|
---------------------|----------------------|--10------------------|

                                                                     
----------------------|-----------------12---|-----------------10---|
----------------------|-----------12-13------|-----------10-12------|
--12-9--11----9-------|--------14------------|--------12------------|
-----------12----10---|-----14---------------|-----12---------------|
----------------------|--12------------------|--10------------------|
----------------------|----------------------|----------------------|

                                                                     
----------------------|---------------------||----------------------|
----------------------|---------------------||----------------------|
-----------9--11------|--12-9--11----9-----o||-----------9--11------|
--------12-------12---|-----------12----10-o||--------12-------12---|
-----12---------------|---------------------||-----12---------------|
--10------------------|---------------------||--10------------------|

                                                ^
----------------------|----------------------|--12---||
----------------------|----------------------|--12---||
--12-9--11----9-------|--------------13------|--13---||
-----------12----10---|--------14-------14---|--14---||
----------------------|-----14----14---------|--14---||
----------------------|--12------------------|--12---||




Low Chords
                                                                     
E |----------------------|----------------------|----------------------|
B |--------0-------------|--------0-------------|--------0-------------|
G |-----------------2----|-----------------2----|-----------------2----|
D |-----2-----0--2-------|-----2-----0--2-------|-----2-----0--2-------|
A |--0-------------------|--0-------------------|--0-------------------|
E |----------------------|----------------------|----------------------|

                                                                     
----------------------||---------------------|----------------------|
--------0-------------||-------0-------------|--------0-------------|
-----------------2----||o---------------2----|-----------------2----|
-----2-----0--2-------||o---2-----0--2-------|-----2-----0--2-------|
--0-------------------||-0-------------------|--0-------------------|
----------------------||---------------------|----------------------|

                                                                     
----------------------|----------------------|----------------------|
--------0-------------|--------0-------------|--------0-------------|
-----------------2----|-----------------2----|-----------------2----|
-----2-----0--2-------|-----2-----0--2-------|-----2-----0--2-------|
--0-------------------|--0-------------------|--0-------------------|
----------------------|----------------------|----------------------|

                                                                       ^     
----------------------|----------------------|---------------------|||-0----|
--------0-------------|--------0-------------|--------0------------|||-1----|
-----------------2----|-----------------2----|-----------------2--o|||o2----|
-----2-----0--2-------|-----2-----0--2-------|-----2-----0--2-----o|||o2----|
--0-------------------|--0-------------------|--0------------------|||-0----|
----------------------|----------------------|---------------------|||------|

  ^       ^               ^       ^       ^               ^             
--3----|--2L---|--2----|--0----|--3----|--2L---|--2---||--2L---|--2----|
--0----|--3L---|--3----|--1----|--0----|--3L---|--3---||--3L---|--3----|
--0----|--2L---|--2----|--2----|--0----|--2L---|--2--o||--2L---|--2----|
--0----|--0L---|--0----|--2----|--0----|--0L---|--0--o||--0L---|--0----|
--2----|--0L---|--0----|--0----|--2----|--0L---|--0---||--0L---|--0----|
--3----|-------|-------|-------|--3----|-------|------||-------|-------|

                         ^
----------------------|--0----||
-----------------0----|--0----||
--------------1-------|--1----||
-----------2----------|--2----||
-----0--2-------------|--2----||
--0-------------------|--0----||



Login or Register to remove this ad.

2 comments on Bonds of Sea and Fire

Sorry all! The melody has a

Sorry all! The melody has a doubled note in the 8th measure.

e----2----
B----7----

should be:

e---------
B----7----

Hello! I fixed it in the

Hello! I fixed it in the text that's displayed on the page, but if you want it to be fixed in the ZIP and so forth, you'll have to upload an update.