Ads

Bonds of Sea and Fire (Xenogears) Guitar Tab

Submitted: Jul 22, 2011 by hashel (Last updated: Aug 25, 2011)

5
Average: 5 (2 votes)
Download | Listen
Game: Xenogears
Composer(s): Yasunori Mitsuda
Style: 2 or more instruments, Alternate picking, Transcription
Series: Xeno

Click here for a video example.

AutoScroll: Slow | Medium | Fast
Please download GP file for complete tab !

Melody

     Q    Q    Q       Q    Q    Q       Q    Q    Q       Q    Q    Q     
E||-----------------|-----------------|-----------------|-----------------|
B||-----------------|-----------------|-----------------|-----------------|
G||-----------------|-----------------|-----------------|-----------------|
D||-----------------|-----------------|-----------------|-----------------|
A||-----------------|-----------------|-----------------|-----------------|
E||-----------------|-----------------|-----------------|-----------------|


  Q    Q    Q       E.  S E  E  E  E     E.  S E  E  E   E   
-----------------|--------------------|---------------------|
-----------------|--------------------|-----------------10--|
-----------------|--9-----9--7--9-----|--9-----9--7--9------|
-----------------|-----------------7--|---------------------|
-----------------|--------------------|---------------------|
-----------------|--------------------|---------------------|


  E.  S E  E  E  E     E  E  E  E  E  E     E.  S E  E  E  E   
--------------------|--------------------|--------------------|
--8-----8--7--8-----|--7-----------------|--------------------|
-----------------9--|-----9--7--9--------|--9-----9--7--9-----|
--------------------|--------------7--5--|-----------------7--|
--------------------|--------------------|--------------------|
--------------------|--------------------|--------------------|


  E.  S E  E  E   E     E.  S E  E  E   E      E   S.T E   E  Q     
---------------------|---------------------|-----------------------|
-----------------10--|--8-----8--7--8--10--|--10--12---8--10-------|
--9-----9--7--9------|---------------------|-----------------------|
---------------------|---------------------|-----------------------|
---------------------|---------------------|-----------------------|
---------------------|---------------------|-----------------------|


  E.  S E  E  E  E     E.  S E  E  E   E     E.  S E  E  E  E   
--------------------|---------------------|--------------------|
--------------------|-----------------10--|--8-----8--7--8-----|
--9-----9--7--9-----|--9-----9--7--9------|-----------------9--|
-----------------7--|---------------------|--------------------|
--------------------|---------------------|--------------------|
--------------------|---------------------|--------------------|


  E  E  E  E  E  E     E.  S E  E  E  E     E.  S E  E  E   E   
--------------------|--------------------|---------------------|
--7-----------------|--------------------|-----------------10--|
-----9--7--9--------|--9-----9--7--9-----|--9-----9--7--9------|
--------------7--5--|-----------------7--|---------------------|
--------------------|--------------------|---------------------|
--------------------|--------------------|---------------------|


  E.  S E  E  E   E      E   S.T E   E  Q        E.  S  Q     E   E   
---------------------|-----------------------|-----------------------|
--8-----8--7--8--10--|--10--12---8--10-------|--13-----13----12--10--|
---------------------|-----------------------|-----------------------|
---------------------|-----------------------|-----------------------|
---------------------|-----------------------|-----------------------|
---------------------|-----------------------|-----------------------|


   E.  S  Q     E  E      E.  S  E.  S E  E     E  E  E  E   E   E   
----------------------|----------------------|----------------------|
--12-----12----10--8--|--10-----10-----8--7--|--8-----7--8--10--12--|
----------------------|----------------------|-----9----------------|
----------------------|----------------------|----------------------|
----------------------|----------------------|----------------------|
----------------------|----------------------|----------------------|


   E.  S  Q     E   E      E.  S  Q     E  E      Q    Q    Q     
-----------------------|----------------------|------------------|
--13-----13----12--10--|--12-----12----10--8--|--10--------------|
-----------------------|----------------------|------------------|
-----------------------|----------------------|------------------|
-----------------------|----------------------|------------------|
-----------------------|----------------------|------------------|


  Q    Q     Q        E.  S  Q     E   E      E.  S  Q     E  E   
------------------|-----------------------|----------------------|
------------12----|--13-----13----12--10--|--12-----12----10--8--|
------------------|-----------------------|----------------------|
------------------|-----------------------|----------------------|
------------------|-----------------------|----------------------|
------------------|-----------------------|----------------------|


   E.  S  E.  S E  E     E  E  E  E   E   E      E.  S  Q     E   E   
----------------------|----------------------|-----------------------|
--10-----10-----8--7--|--8-----7--8--10--12--|--13-----13----12--10--|
----------------------|-----9----------------|-----------------------|
----------------------|----------------------|-----------------------|
----------------------|----------------------|-----------------------|
----------------------|----------------------|-----------------------|


   E.  S  Q     E  E      Q    Q    Q       Q    Q    E   E   
----------------------|------------------|-------------------|
--12-----12----10--8--|--10--------------|------------8--10--|
----------------------|------------------|-------------------|
----------------------|------------------|-------------------|
----------------------|------------------|-------------------|
----------------------|------------------|-------------------|


   Q    Q    Q       Q    Q    Q      
------------------|-----------------||
--12--------------|-----------------||
------------------|-----------------||
------------------|-----------------||
------------------|-----------------||
------------------|-----------------||

Rhythm

     Q    Q    Q        S S  S S  S S  S S  S S  S S  
E||-----------------|--------------------------------|
B||-----------------|--17--------15-------------15---|
G||-----------------|-------16--------14---16--------|
D||-----------------|--------------------------------|
A||-----------------|--------------------------------|
E||-----------------|--------------------------------|


   S S  S S  S S  S S  S S  S S     S S  S S  S S  S S  S S  S S  
--------------------------------|--------------------------------|
--17--------15-------------15---|--17--------15-------------15---|
-------16--------14---16--------|-------16--------14---16--------|
--------------------------------|--------------------------------|
--------------------------------|--------------------------------|
--------------------------------|--------------------------------|


   S S  S S  S S  S S  S S  S S     S S  S S  S S  S S  S S  S S  
--------------------------------|--------------------------------|
--17--------15-------------15---|--17--------15-------------15---|
-------16--------14---16--------|-------16--------14---16--------|
--------------------------------|--------------------------------|
--------------------------------|--------------------------------|
--------------------------------|--------------------------------|


   S S  S S  S S  S S  S S  S S     S S  S S  S S  S S  S S  S S  
--------------------------------|--------------------------------|
--17--------15-------------15---|--17--------15-------------15---|
-------16--------14---16--------|-------16--------14---16--------|
--------------------------------|--------------------------------|
--------------------------------|--------------------------------|
--------------------------------|--------------------------------|


   S S  S S  S S  S S  S S  S S     S S  S S  S S  S S  S S  S S  
--------------------------------|--------------------------------|
--17--------15-------------15---|--17--------15-------------15---|
-------16--------14---16--------|-------16--------14---16--------|
--------------------------------|--------------------------------|
--------------------------------|--------------------------------|
--------------------------------|--------------------------------|


   S S  S S  S S  S S  S S  S S     S S  S S  S S  S S  S S  S S  
--------------------------------|--------------------------------|
--17--------15-------------15---|--17--------15-------------15---|
-------16--------14---16--------|-------16--------14---16--------|
--------------------------------|--------------------------------|
--------------------------------|--------------------------------|
--------------------------------|--------------------------------|


   S S  S S  S S  S S  S S  S S     S S  S S  S S  S S  S S  S S  
--------------------------------|--------------------------------|
--17--------15-------------15---|--17--------15-------------15---|
-------16--------14---16--------|-------16--------14---16--------|
--------------------------------|--------------------------------|
--------------------------------|--------------------------------|
--------------------------------|--------------------------------|


   S S  S S  S S  S S  S S  S S     S S  S S  S S  S S  S S  S S  
--------------------------------|--------------------------------|
--17--------15-------------15---|--17--------15-------------15---|
-------16--------14---16--------|-------16--------14---16--------|
--------------------------------|--------------------------------|
--------------------------------|--------------------------------|
--------------------------------|--------------------------------|


   S S  S S  S S  S S  S S  S S     S S  S S  S S  S S  S S  S S  
--------------------------------|--------------------------------|
--17--------15-------------15---|--17--------15-------------15---|
-------16--------14---16--------|-------16--------14---16--------|
--------------------------------|--------------------------------|
--------------------------------|--------------------------------|
--------------------------------|--------------------------------|


   S S  S S  S S  S S  S S  S S     S S  S S  S S  S S  S S  S S  
--------------------------------|--------------------------------|
--17--------15-------------15---|--17--------15-------------15---|
-------16--------14---16--------|-------16--------14---16--------|
--------------------------------|--------------------------------|
--------------------------------|--------------------------------|
--------------------------------|--------------------------------|


   S S  S S  S S  S S  S S  S S    Q    Q    Q       Q    Q    Q     
--------------------------------|--8--------------|--7--------------|
--17--------15-------------15---|--5--------------|--8--------------|
-------16--------14---16--------|-----------------|-----------------|
--------------------------------|-----------------|-----------------|
--------------------------------|-----------------|-----------------|
--------------------------------|-----------------|-----------------|


  Q    Q    Q       Q    Q    Q       Q    Q    Q       Q    Q     Q     
--5--------------|-----------------|--8--------------|--7---------10----|
--3--------------|-----------------|--5--------------|--8---------------|
-----------------|-----------------|-----------------|------------------|
-----------------|-----------------|-----------------|------------------|
-----------------|-----------------|-----------------|------------------|
-----------------|-----------------|-----------------|------------------|


  Q    Q    Q       Q    Q    Q       Q    Q    Q       Q    Q    Q     
--5--------------|-----------------|--8--------------|--7--------------|
-----------------|-----------------|--5--------------|--8--------------|
-----------------|-----------------|-----------------|-----------------|
-----------------|-----------------|-----------------|-----------------|
-----------------|-----------------|-----------------|-----------------|
-----------------|-----------------|-----------------|-----------------|


  Q    Q    Q       Q    Q    Q       Q    Q    Q       Q    Q     Q     
--5--------------|-----------------|--8--------------|--7---------10----|
--3--------------|-----------------|--5--------------|--8---------------|
-----------------|-----------------|-----------------|------------------|
-----------------|-----------------|-----------------|------------------|
-----------------|-----------------|-----------------|------------------|
-----------------|-----------------|-----------------|------------------|


  Q    Q    Q       Q    Q    Q        Q    Q    Q        Q    Q    Q      
--5--------------|-----------------|--12--------------|------------------||
-----------------|-----------------|--12--------------|------------------||
-----------------|-----------------|--14--------------|--13--------------||
-----------------|-----------------|------------------|------------------||
-----------------|-----------------|------------------|------------------||
-----------------|-----------------|------------------|------------------||
Login or Register to remove this ad.

1 comment on Bonds of Sea and Fire

thanks for the upload =)

thanks for the upload =)