Ads

Bonds of Sea and Fire (Xenogears) Guitar Tab

Submitted: Aug 18, 2010 by zen03y (Last updated: Jan 07, 2011)

4.8
Average: 4.8 (5 votes)
Download | Listen
Game: Xenogears
Composer(s): Yasunori Mitsuda
Style: Arrangement, Fingerstyle
Series: Xeno

Click here for a video example.

AutoScroll: Slow | Medium | Fast
Title: Bonds of Sea and Fire
Artist: Yasunori Mitsuda, transcribed by zen03y/xen05z
Album: Xenogears OST
Tabber: xen05z/zen03y
Tempo = 160
Nylon Guitar

Legend
L - tied note
x - dead note
h - hammer on/pull off
b - bend
s - slide
~ - vibrato
g - ghost note
> - accentuated note
t - trill
M - palm mute
. - staccato
P - popping (bass)
S - slapping (bass)
+ - tapping
W - wide vibrato
< - fade in
w - whammy bar
= - tremolo picking
v - brush up
^ - brush down
V - pick stroke up
n - pick stroke down

                                                                         
E ||-0----------|------------|||-0----------|------------||--0-----0----|
B ||-------3----|--------3---|||-------3----|--------3---||-------------|
G ||o---4-------|--2--4-----o|||o---4-------|--2--4-----o||-------------|
D ||o-----------|-----------o|||o2----------|-----------o||-----2-------|
A ||-0L-0L-0L---|--0L-0L-0---|||-0L-0L-0L---|--0L-0L-0---||--0----------|
D ||------------|------------|||------------|------------||-------------|

                                                                      
-----0-------|--0-----0----|-----0--5----|--3-----3----|--2--3--0----|
--3----------|-------------|--3----------|-------------|-------------|
--------2----|-------------|-------------|-------------|-------------|
-------------|-----2-------|-------------|-----2-------|-------------|
-------------|--0----------|-------------|--0----------|-------------|
-------------|-------------|-------------|-------------|-------------|

                                                                     
--2-----------0--2--0-------------------|-------------|--0-----0----|
--------------------------3-------------|--5----------|-------------|
----------------------------------------|-----2--0----|-------------|
----------------------------------------|-------------|-----2-------|
--0-------------------------------------|-------------|--0----------|
----------------------------------------|-------------|-------------|

                                                                      
-----0-------|--0-----0----|-----0--5----|--3-----3----|--2--3--5----|
--3----------|-------------|--3----------|-------------|-------------|
--------2----|-------------|-------------|-------------|-------------|
-------------|-----2-------|-------------|-----2-------|-------------|
-------------|--0----------|-------------|--0----------|-------------|
-------------|-------------|-------------|-------------|-------------|

                                                                      
--5--7--3----|--5----------|--0-----0----|-----0-------|--0-----0----|
-------------|--------3----|--------0----|--3----------|--------0----|
-------------|--2--4-------|-------------|--0-----2----|-------------|
-------------|-------------|-----2-------|-----0--2----|-----2-------|
-----7-------|-------------|--0----------|-------------|--0----------|
--7----------|-------------|-------------|-------------|-------------|

                                          
-----0--5----|--3-----3----|--2--3--0----|
--3----------|-------------|-------------|
--0----------|--------4----|-------------|
-----0--2----|-----2-------|-----0--2----|
-------------|--0----------|--0----------|
-------------|-------------|-------------|

                                                                     
--2-----------0--2--0-------------------|-------------|--0-----0----|
--------------------------3-------------|--5----------|--------0----|
----------------------------------------|-----2--0----|-------------|
--------------2-----------0-------------|-----0--2----|-----2-------|
--0-------------------------------------|--0----------|--0----------|
----------------------------------------|-------------|-------------|

                                                                      
-----0-------|--0-----0----|-----0--5----|--3-----3----|--2--3--5----|
--3----------|--------0----|--3----------|--------0----|-------------|
--0-----2----|-------------|--0----------|-------------|--0--2-------|
-----0--2----|-----2-------|-----0--2----|-----2-------|--------2----|
-------------|--0----------|-------------|--0----------|-------------|
-------------|-------------|-------------|-------------|-------------|

                                                                      
--5--7--3----|--5----------|--8----------|--8--7--5----|--7-----7----|
-------------|-------------|--10---------|-----8--7----|-------------|
-------------|-----2--0----|-------------|--9----------|-------------|
-------------|-----0--2----|-----7--10---|-------------|--------7----|
-----5-------|--0----------|--0----------|-------------|-----5-------|
--7----------|-------------|-------------|-------------|--5----------|

                                                                      
-----5--3----|--5----------|-----3--2----|--3--0--2----|--3--5--7----|
--0-----3----|--0----------|-------------|--------3----|--5----------|
-----5-------|-------------|-------------|--0--2-------|-----7-------|
-------------|--0----------|--0--2--4----|-------------|-----0-------|
-------------|--------0----|-------------|-------------|--------7----|
-------------|-----4-------|--------4----|--5----------|-------------|

                                                                      
--8----------|-----7--5----|--7----------|-----5--3----|--5----------|
--10---------|-----8--7----|-------------|--0-----3----|--3----------|
-------------|--9----------|-------------|-----5-------|--4----------|
-----7--10---|-------------|--------7----|-------------|--0-----0----|
--0----------|-------------|-----5-------|-------------|-----0-------|
-------------|-------------|--5----------|-------------|-------------|

                                                                      
-------------|-------------|-----7-------|--8----------|--8--7--5----|
-------------|-------------|-----8-------|--10---------|-----8--7----|
--------2----|--0----------|-----0-------|-------------|--9----------|
--2--4-------|-----4--2----|--4--0--5----|-----7--10---|-------------|
-------------|-------------|-----9--7----|--0----------|-------------|
--------4----|--5--2--4----|--0----------|-------------|-------------|

                                                                      
--7-----7----|-----5--3----|--5----------|-----3--2----|--3--0--2----|
-------------|--0-----3----|--0----------|-------------|--------3----|
-------------|-----5-------|-----0-------|-------------|--0--2-------|
--------7----|-------------|--0----------|--0--2--4----|-------------|
-----5-------|-------------|--------0----|-------------|-------------|
--5----------|-------------|--4----------|--------4----|--5----------|

                                                                      
--3--5--7----|--8----------|-----7--5----|--7----------|-----5--3----|
--5----------|--10---------|-----8--7----|--3----------|--0-----3----|
-----7-------|-------------|--9----------|-------------|-----5-------|
-----0-------|-----7--10---|-------------|--------7----|-------------|
--------7----|--0----------|-------------|-----5-------|-------------|
-------------|-------------|-------------|--5----------|-------------|

                                                          ^           
--5----------|-------------|-------------|-----3--5----|--7L----7----|
--3----------|-------------|-------------|--------3----|--5L----5----|
--4----------|--------2----|--0----------|--------4----|--4L----4----|
--0-----0----|--2--4-------|-----4--2----|--4--0--0----|--4L----4----|
-----0-------|-------------|-------------|-------------|-------------|
-------------|--------4----|--5--2--4----|--0--2-------|-------------|

                ^                                                     
-------------|--0L----0L---|--0L-0-------||-0----------|------------||
--------3----|--0L----0L---|--0L-0-------||----0--3----|-----0--3---||
-----2-------|--1L----1L---|--1L-1-------||o------4----|--0--2-----o||
--2----------|--2L----2L---|--2L-2-------||o---2-------|--2-----2--o||
-------------|-------------|-------------||-0----------|------------||
-------------|-------------|-------------||------------|------------||

                              ^                           ^           
--0----------|-------------|--0L-0L------|--0--5-------|--3L-3L------|
-----0--3----|-----0--3----|--3L-3L------|--3----------|--0L-0L------|
--------4----|--0--2-------|--0L-0L------|--0----------|--4L-4L------|
-----2-------|--2-----2----|--0L-0L------|--0----------|-------------|
--0----------|-------------|-------------|-------------|-------------|
--0----------|-------------|-------------|-------------|-------------|

                ^                                                     
--3----------|--0----------|-------------|--------5L---|--5L----5----|
--0--3-------|--1----------|--0--1-------|--3----------|-------------|
--4----------|--2-----2----|-------------|-------------|-------------|
-------------|-----2-------|-------------|-------------|-------------|
-------------|-------------|-------------|-------------|-------------|
-------------|-------------|-------------|-------------|-------------|

  <
--7L----7L---|--7L----7----||
-------------|-------------||
-------------|-------------||
-------------|-------------||
-------------|-------------||
-------------|-------------||

Login or Register to remove this ad.

1 comment on Bonds of Sea and Fire

I don't know why this hasn't been rated before.

4

This is a great tab for this one. Maybe people are intimidated when they see this and run away, but it really is a straight forward representation of the piece and it's not too difficult. I think the only thing that threw me off a little was the time sig because it only encompasses half a phrase at a time.