Ads

Satorl, the Shimmering Marsh / Night (Xenoblade Chronicles) Guitar Tab

Submitted: Nov 10, 2012 by Jack the Cow

5
Average: 5 (4 votes)
Download | Listen
Game: Xenoblade Chronicles
Composer(s): Yasunori Mitsuda, Yoko Shimomura, Manami Kiyota, ACE+
Style: Arrangement, Fingerstyle
Series: Xeno

AutoScroll: Slow | Medium | Fast
Game: Xenoblade Chronicles
Song: Satorl, the Shimmering Marsh (Night) 
Composed by: Manami Kiyota
                      
Transcribed by Jack the Cow



Capo 6



      E  E  E  E     E  E  E  E     E  E  E  E     E  E  E  E     E  E  E  E   
E||---0-----------|--0-----------|--0-----------|--------------|--------------|
B||---------0-----|--------0-----|--------0-----|--3-----------|--3-----------|
G||*-----2-----2--|-----2-----2--|-----2-----2--|-----0--2--0--|-----0--2--0--|
D||*--------2-----|--------2-----|--------2-----|--------------|--------------|
A||---3-----------|--3-----------|--3-----------|--------2-----|--------2-----|
E||---------------|--------------|--------------|--3-----------|--3-----------|


  E  E  E  E        E  E  E  E     E  E  E  E     E  E  E  E     E  E  E  E   
---------------||---0-----------|--------------|--------------|--------------|
--3------------||---------------|--0-----------|--------0-----|--3-----------|
-----0--2--0--*||*-----0--2--0--|-----0--2--0--|--2--0-----0--|-----0--2--0--|
--------------*||*--2-----2-----|--------2-----|--------2-----|--------------|
--------2------||---3-----------|--3-----------|--3-----------|--------2-----|
--3------------||---------------|--------------|--------------|--3-----------|


  E  E  E  E     E  E  E  E     E  E  E  E     E  E  E  E     E  E  E  E   
--------------|--------------|--------------|--------------|--------------|
--0-----------|-----------0--|--------------|--0-----------|--------0-----|
-----0--2--0--|--2--0--2-----|-----0--2--0--|-----0--2--0--|--2--0-----0--|
--------------|--------------|--2-----2-----|--------2-----|--------2-----|
--------2-----|--------2-----|--3-----------|--3-----------|--3-----------|
--3-----------|--3-----------|--------------|--------------|--------------|


  E  E  E  E     E  E  E  E     E  E  E  E     E  E  E  E     E  E  E  E   
--------0-----|--------------|--------------|--------------|--------------|
--3-----------|--0-----------|-----------0--|--------------|--0-----------|
-----0-----0--|-----0--2--0--|--2--0--2-----|-----0--2--0--|-----0--2--0--|
--------------|--------------|--------------|--2-----2-----|--------2-----|
--------2-----|--------2-----|--------2-----|--3-----------|--3-----------|
--3-----------|--3-----------|--3-----------|--------------|--------------|


  E  E  E  E     E  E  E  E     E  E  E  E     E  E  E  E     E  E  E  E   
--------------|--------0-----|--------------|--------------|--------------|
--------0-----|--3-----------|--------0-----|--------------|--------------|
--2--0-----0--|-----0-----0--|--2--0-----0--|--------0-----|--------------|
--------2-----|--------------|--------------|--4-----4-----|--2--------2--|
--3-----------|--------2-----|--------2-----|-----5-----5--|--------2-----|
--------------|--3-----------|--3-----------|--2-----------|--0--0--------|


  E  E  E  E     E  E  E  E     E  E  E  E     E  E  E  E     E  E  E  E     
--------------|--------------|--------------|--------------|---------------||
--------0--3--|--0--3--0-----|--------------|--------------|---------------||
--0--2--------|-----------2--|--0--2--0-----|-----0--------|--------------*||
--2-----------|--2-----------|--2--------2--|--4-----4--2--|--0--2--0-----*||
--------------|--------------|--------------|--2-----------|--2--------2---||
--------------|--------------|--------------|--------------|---------------||


  H           H           Q    Q       Q    Q       H           Q    Q     
--0--------|-----------|------------|-------0----|-----------|------------|
-----------|--0--------|-------0----|--3---------|--3--------|--0---------|
-----------|--0--------|--2---------|--0---------|--0--------|-------2----|
--2--------|--2--------|------------|------------|--0--------|--0---------|
--3--------|-----------|--3---------|------------|-----------|------------|
-----------|-----------|------------|--3---------|-----------|------------|


  Q    Q       Q    Q       Q    Q       Q    E   E     Q    Q       Q    Q     
------------|------------|------------|--2----0h--2--|------------|------------|
------------|--0---------|--0----3----|--------------|--3----0----|-------0----|
--2---------|--0----0----|------------|--------------|--0---------|--2---------|
-------0----|------------|------------|-------0------|------------|------------|
--2---------|------------|------------|--------------|--2---------|------------|
------------|------------|------------|--3-----------|------------|------------|


  H           H           Q    Q       Q    Q       Q    Q       Q    Q     
--0--------|-----------|------------|-------0----|-------0----|------------|
-----------|--0--------|-------0----|--3---------|--3---------|--0---------|
-----------|--0--------|--2---------|--0---------|--0---------|-------2----|
--2--------|--2--------|------------|------------|--0---------|--0---------|
--3--------|-----------|--3---------|------------|------------|------------|
-----------|-----------|------------|--3---------|------------|------------|


  H           H           Q    Q       H           H           Q    Q     
-----------|-----------|--2----0----|-----------|-----------|--0----2----|
-----------|--0--------|--0---------|--4--------|--0--------|--0---------|
--2--------|--0--------|------------|--4--------|-----------|------------|
-----------|-----------|------------|-----------|--4--------|------------|
--2--------|-----------|------------|--2--------|--2--------|------------|
-----------|-----------|--3---------|-----------|-----------|------------|


  Q    Q       Q    Q       H           Q    Q       H           Q    Q     
--3----2----|--0---------|-----------|------------|-----------|-------0----|
--0----0----|--0----3----|--0--------|-------0----|--3--------|--3---------|
--0---------|--0---------|--0--------|--2---------|--0--------|--0---------|
------------|--2---------|--2--------|--0---------|--0--------|--0---------|
--3---------|------------|--3--------|------------|--2--------|------------|
------------|------------|-----------|--3---------|-----------|------------|


  Q    Q       Q    Q       Q    Q       Q    Q       H           H         
--2----0----|--2----3----|--5----7----|--5---------|--3--------|-----------|
--0---------|--0---------|--0---------|--5---------|--0--------|-----------|
--2---------|--2---------|--0---------|-------0----|--0--------|--0--------|
------------|--1---------|------------|------------|--2--------|--2--------|
--2---------|------------|------------|------------|-----------|-----------|
------------|------------|------------|--0---------|-----------|-----------|


  H           H           Q    Q        Q    Q       Q    Q       Q    Q     
--0--------|--7--------|--5----7----|--10----7----|--5----7----|--2----3----|
--0--------|--0--------|--0----0----|---8----0----|--0----0----|--0----0----|
--0--------|--0--------|--0---------|---0---------|--0---------|--2---------|
-----------|-----------|--5---------|---0---------|--5---------|--0---------|
--3--------|--7--------|------------|-------------|------------|------------|
-----------|-----------|------------|-------------|------------|------------|


  H           H           Q    Q       H           H           Q    Q     
--0--------|-----------|------------|-----------|-----------|-------0----|
--0--------|-----------|-------0----|-----------|-----------|--3---------|
--0--------|--0--------|--0----0----|--2--------|--2--------|--2---------|
-----------|--2--------|--2---------|--0--------|--0--------|--0---------|
-----------|-----------|------------|-----------|-----------|------------|
--0--------|-----------|--0---------|--2--------|-----------|--2---------|


  H           H           Q    Q       Q    Q       Q    Q       Q    Q     
--0--------|-----------|------------|------------|------------|------------|
--0--------|--0--------|-------0----|------------|------------|------------|
--0--------|--0--------|--2---------|--0----2----|-------0----|------------|
-----------|--2--------|------------|--0---------|--4---------|--2----4----|
-----------|-----------|--2---------|------------|------------|--2---------|
--0--------|-----------|------------|------------|--2---------|------------|


  Q    E  E     E  E  E  E     E  E  E  E     E  E  E  E     E  E  E  E   
-------------|--------------|--------------|--------------|--------------|
-------------|--------0--3--|--0--3--0-----|--------------|--------------|
-------------|--0--2--------|-----------2--|--0--2--0-----|-----0--------|
--2-------2--|--------------|--------------|-----------2--|--4-----4--2--|
-------2-----|--------------|--------2--L--|--------------|--------------|
--0----------|--------------|--3--L--------|--0--L--------|--------------|


  E  E  E  E       Q    Q       Q    Q       Q    Q       Q    Q     
--------------||---0----L----|-------0----|--0----0----|------------|
--------------||-------------|--0---------|--0---------|--3----L----|
--------------||*------------|--0---------|------------|--0----L----|
--0--2--0-----||*--2----L----|--2---------|------------|--0----L----|
-----------2--||---3----L----|------------|------------|------------|
--------------||--------3----|------------|------------|-------2----|


  H           H           Q    Q       Q    Q       Q    Q       Q    Q     
-----------|-----------|--0----L----|-------0----|--0----0----|-------0----|
--3--------|--L--------|------------|--0---------|--0---------|--3----L----|
--4--------|--L--------|------------|--0---------|------------|--0----L----|
--0--------|--L--------|--2----L----|--2---------|------------|--0----L----|
-----------|-----------|--3----L----|------------|------------|------------|
-----------|-----------|-------3----|------------|------------|-------2----|


  H           H           Q    Q       Q    Q       Q    Q       Q    Q     
-----------|-----------|--0----L----|-------0----|--0----0----|------------|
--3--------|--L--------|------------|--0---------|--0---------|--3----0----|
--4--------|--L--------|------------|--0---------|------------|--0---------|
--0--------|--L--------|--2----L----|--2---------|------------|--0---------|
-----------|-----------|--3----L----|------------|------------|------------|
-----------|-----------|-------3----|------------|------------|-------2----|


  Q    Q       Q    Q       Q    Q       H            Q    Q       Q    Q     
------------|--2---------|--0---------|------------|------------|--0---------|
-------0----|--3---------|--0---------|------------|-------0----|------------|
--2---------|-------0----|--0---------|------------|--0---------|------------|
------------|--4---------|------------|--2---------|------------|------------|
------------|------------|-------2----|------------|------------|-------2----|
------------|------------|--0---------|------------|------------|--0---------|


                              ^                      
  H            Q    Q         H                      
------------|-------------||--0--------|-----------||
--0---------|-------------||--0--------|-----------||
------------|--0---------*||--0--------|-----------||
--2---------|-------0----*||--2--------|-----------||
------------|-------------||--2--------|-----------||
------------|-------------||--0--------|-----------||




Duration Legend
---------------
W - whole
H - half
Q - quarter
E - 8th
S - 16th
T - 32nd
X - 64th
. - note dotted
|-n-|  - n-tuplets


Tablature Legend
----------------
L - tied note
h - hammer on
p - pull off
^ - brush down
Login or Register to remove this ad.

1 comment on Satorl, the Shimmering Marsh / Night

5 star buddy, I've never

5

5 star buddy, I've never played the game before, but I think I love this song