Ads

Mechanical Rhythm (Xenoblade Chronicles) Guitar Tab

Submitted: Jun 23, 2012 by ChelseaRare

5
Average: 5 (5 votes)
Download | Listen
Game: Xenoblade Chronicles
Composer(s): Yasunori Mitsuda, Yoko Shimomura, Manami Kiyota, ACE+
Style: Transcription
Series: Xeno

AutoScroll: Slow | Medium | Fast
Xenoblade Chronicles - Mechanical Rhythm (Battle on Mechonis)
Tabbed by Chelsea intal
Composed by ACE+

Drop D Tuning (DADGBe)

*Credit to hslesperance for helping out with the end solo.

     E  S S S S S S S S S E  S S S    E  S S S S S S S S S E  E.   
E||--------------------------------|------------------------------|
B||--------------------------------|------------------------------|
G||--------------------------------|------------------------------|
D||--------------------------------|------------------------------|
A||--------------------------------|-----------------5-3----------|
D||--0--0-0-3-0-0-0-7-0-0-8--7-5-3-|--0--0-0-3-0-0-0-----6-7--3---|


  E  S S S S S S S S S E  S S S    E  S S S S S S S S S E  E.   
--------------------------------|------------------------------|
--------------------------------|------------------------------|
--------------------------------|------------------------------|
--------------------------------|------------------------------|
--------------------------------|-----------------5-3----------|
--0--0-0-3-0-0-0-7-0-0-8--7-5-3-|--0--0-0-3-0-0-0-----6-7--3---|


  E  S S S S S S S S S E  S S S    E  S S S S S E  S S S S S S S  
--------------------------------|--------------------------------|
--------------------------------|--------------------------------|
--------------------------------|---------------5--7-------------|
--------------------------------|--------------------5-7---5-----|
--------------------------------|------------------------8---7-8-|
--0--0-0-3-0-0-0-7-0-0-8--7-5-3-|--0--0-0-3-0-0------------------|


  E  S S S S S S S S S E  S E     E  S S S S S S S S S E  S E   
-------------------------------|-------------------------------|
-------------------------------|-------------------------------|
-------------------------------|-------------------------------|
--0--0-0-3-0-0-0-5-0-0-3--0-2--|--0--0-0-3-0-0-0-5-0-0-6--0-7--|
-------------------------------|-------------------------------|
-------------------------------|-------------------------------|


  E  S S S S S S S S S E  S E     S E  S E.  E  E  S E.  S  
-------------------------------|---------------------------|
-------------------------------|---------------------------|
-------------------------------|----9----9------8----8-----|
--0--0-0-3-0-0-0-5-0-0-3--0-2--|----7----7------7----7-----|
-------------------------------|---------------------------|
-------------------------------|---------------------------|


  E  S S S S S S S S S E  S E     E  S S S S S S S S S E  S E   
-------------------------------|-------------------------------|
-------------------------------|-------------------------------|
-------------------------------|-------------------------------|
--0--0-0-3-0-0-0-5-0-0-3--0-2--|--0--0-0-3-0-0-0-5-0-0-6--0-7--|
-------------------------------|-------------------------------|
-------------------------------|-------------------------------|


  E  S S S S S S S S S E  S E     E  E  E  Q    E  Q     
-------------------------------|------------------------|
-------------------------------|--------5--4-------4----|
-------------------------------|-----4----------4-------|
--0--0-0-3-0-0-0-5-0-0-3--0-2--|--2---------------------|
-------------------------------|------------------------|
-------------------------------|------------------------|


  E   E   E  E   E   E   E   E     E   E   E  E   E   E   Q     
--------------------------------|------------------------------|
--------------------------------|------------------------------|
--------------------------------|------------------------------|
--0--15--12--0--14--15--12--10--|--0--15--12--0--17--15--19----|
--0--15--12--0--14--15--12--10--|--0--15--12--0--17--15--19----|
--0--15--12--0--14--15--12--10--|--0--15--12--0--17--15--19----|


  E   E   E  E   E   E   E  S   S    E  E   E  Q    Q    E   
----------------------------------|-------------------------|
----------------------------------|-------------------------|
----------------------------------|-------------------------|
--0--15--12--0--14--15--12--7s-10-|--L--9------8----7-------|
--0--15--12--0--14--15--12--------|--------10------------8--|
--0--15--12--0--14--15--12--------|-------------------------|


  E   E   E  E   E   E   E   E     E   E   E  E   E   E   Q     
--------------------------------|------------------------------|
--------------------------------|------------------------------|
--------------------------------|------------------------------|
--0--15--12--0--14--15--12--10--|--0--15--12--0--17--15--19----|
--0--15--12--0--14--15--12--10--|--0--15--12--0--17--15--19----|
--0--15--12--0--14--15--12--10--|--0--15--12--0--17--15--19----|


  S S S E  S S S S E  Q    S    E  S S S E  S  E   E   E   E   
-----------------------------|--------------------------------|
-----------------------------|----------------------------11--|
-----------------------------|----------------10--12--13------|
--0-0-0-0----0-0-0-0---------|-----0-0-0-0--------------------|
--0-0-0-0----0-0-0-0---------|-----0-0-0-0--------------------|
--0-0-0-0----0-0-0-0---------|-----0-0-0-0--------------------|


   H.           E   S  S     H         E.   E.   E   
-------------------------|--------------------------|
--13------------L--11----|----------------------16--|
----------------------13-|--12--------12---15-------|
-------------------------|--------------------------|
-------------------------|--------------------------|
-------------------------|--------------------------|


   H        E   E   E   E      Q     Q     Q     Q     
--15--------L--15--16--18--|--16----15----------------|
---------------------------|--------------18----------|
---------------------------|--------------------17----|
---------------------------|--------------------------|
---------------------------|--------------------------|
---------------------------|--------------------------|


  E   S  S  Q    E   S  S  Q       E   S  S  Q    E   S  S  Q     
--------------------------18----|--------18-20-------18-20-23----|
-----18-20-21-------20-21-------|-----21-------------------------|
--------------------------------|--------------------------------|
--------------------------------|--------------------------------|
--------------------------------|--------------------------------|
--------------------------------|--------------------------------|


  E  S S S S S S S S S E  S S S    E  S S S S S E   S S  S  S S  S  S  
--------------------------------|-------------------------------------|
--------------------------------|-------------------------------------|
--------------------------------|---------------8--10-----------------|
--------------------------------|---------------------8-10----8-------|
-----------------3-----4--3-1---|--------------------------11---10-11-|
--3--3-3-6-3-3-3---3-3--------6-|--3--3-3-6-3-3-----------------------|


   H.           E   S  S     H         E.   E.   E   
-------------------------|--------------------------|
-------------------------|--------------------------|
--10------------L--------|----------------------13--|
-------------------13-11-|--10--------10---13-------|
-------------------------|--------------------------|
-------------------------|--------------------------|


   H        E   E   E   E      Q     Q     Q     Q     
------------L------11------|--------------------11----|
--11-----------11------14--|--13----11----13----------|
---------------------------|--------------------------|
---------------------------|--------------------------|
---------------------------|--------------------------|
---------------------------|--------------------------|


   Q.      S  S  Q.      S  S     Q.      S  S  Q     Q     
--13------11------------------|----------------------------|
-------------14-13------11----|-------------11-------------|
---------------------------13-|--12------12----12----------|
------------------------------|----------------------13----|
------------------------------|----------------------------|
------------------------------|----------------------------|


  S S S E  S S S S E  Q    S    E  S S S E  S S S S S Q     
-----------------------------|-----------------------------|
-----------------------------|-----------------------------|
-----------------------------|-----------------------------|
--3-3-3-3----3-3-3-3---------|-----3-3-3-3----3-3-3-3-6----|
--3-3-3-3----3-3-3-3---------|-----3-3-3-3----3-3-3-3-6----|
--3-3-3-3----3-3-3-3---------|-----3-3-3-3----3-3-3-3-6----|


  S S S E  S S S S E  Q    S    E  S S S E  E   S S  S  S S  S  S  
-----------------------------|------------------------------------|
-----------------------------|------------------------------------|
-----------------------------|--------------8--10-----------------|
--3-3-3-3----3-3-3-3---------|-----3-3-3-3--------8-10----8-------|
--3-3-3-3----3-3-3-3---------|-----3-3-3-3-------------11---10-11-|
--3-3-3-3----3-3-3-3---------|-----3-3-3-3------------------------|


  S S S E  S S S S E  Q    S    E  S S S E  S S S S S Q     
-----------------------------|-----------------------------|
-----------------------------|-----------------------------|
-----------------------------|-----------------------------|
--0-0-0-0----0-0-0-0---------|-----0-0-0-0----0-0-0-0-3----|
--0-0-0-0----0-0-0-0---------|-----0-0-0-0----0-0-0-0-3----|
--0-0-0-0----0-0-0-0---------|-----0-0-0-0----0-0-0-0-3----|


  S S S E  S S S S E  Q    S    E  S S S E  E  S S S S S S S  
-----------------------------|-------------------------------|
-----------------------------|-------------------------------|
-----------------------------|--------------5--7-------------|
--0-0-0-0----0-0-0-0---------|-----0-0-0-0-------5-7---5-----|
--0-0-0-0----0-0-0-0---------|-----0-0-0-0-----------8---7-8-|
--0-0-0-0----0-0-0-0---------|-----0-0-0-0-------------------|


  E  S S S S S S S S S E  S E     E  S S S S S S S S S E  S E   
-------------------------------|-------------------------------|
-------------------------------|-------------------------------|
-------------------------------|-------------------------------|
--0--0-0-3-0-0-0-5-0-0-3--0-2--|--0--0-0-3-0-0-0-5-0-0-6--0-7--|
-------------------------------|-------------------------------|
-------------------------------|-------------------------------|


  E  S S S S S S S S S E  S E     S E  S E.  E  E  S E.  S  
-------------------------------|---------------------------|
-------------------------------|---------------------------|
-------------------------------|----9----9------8----8-----|
--0--0-0-3-0-0-0-5-0-0-3--0-2--|----7----7------7----7-----|
-------------------------------|---------------------------|
-------------------------------|---------------------------|


  E  S S S S S S S S S E  S E     E  S S S S S S S S S E  S E   
-------------------------------|-------------------------------|
-------------------------------|-------------------------------|
-------------------------------|-------------------------------|
--0--0-0-3-0-0-0-5-0-0-3--0-2--|--0--0-0-3-0-0-0-5-0-0-6--0-7--|
-------------------------------|-------------------------------|
-------------------------------|-------------------------------|


  E  S S S S S S S S S E  S E     E  E  E  Q    E  Q     
-------------------------------|------------------------|
-------------------------------|------------------------|
-----------------5-7-----------|--------9--8-------8----|
--0--0-0-7-0-0-0-----0-7----5--|-----9----------9-------|
--------------------------8----|--7---------------------|
-------------------------------|------------------------|


  E   E   E  E   E   E   E   E     E   E   E  E   E   E   Q     
--------------------------------|------------------------------|
--------------------------------|------------------------------|
--------------------------------|------------------------------|
--0--15--12--0--14--15--12--10--|--0--15--12--0--17--15--19----|
--0--15--12--0--14--15--12--10--|--0--15--12--0--17--15--19----|
--0--15--12--0--14--15--12--10--|--0--15--12--0--17--15--19----|


  E   E   E  E   E   E   E  S   S    E  E   E  Q    Q    E   
----------------------------------|-------------------------|
----------------------------------|-------------------------|
----------------------------------|-------------------------|
--0--15--12--0--14--15--12--7s-10-|--L--9------8----7-------|
--0--15--12--0--14--15--12--------|--------10------------8--|
--0--15--12--0--14--15--12--------|-------------------------|


  E   E   E  E   E   E   E   E     E   E   E  E   E   E   Q     
--------------------------------|------------------------------|
--------------------------------|------------------------------|
--------------------------------|------------------------------|
--0--15--12--0--14--15--12--10--|--0--15--12--0--17--15--19----|
--0--15--12--0--14--15--12--10--|--0--15--12--0--17--15--19----|
--0--15--12--0--14--15--12--10--|--0--15--12--0--17--15--19----|


  S S S E  S S S S E  Q    S    E  S S S E  S  E   E   E   E   
-----------------------------|--------------------------------|
-----------------------------|----------------------------11--|
-----------------------------|----------------10--12--13------|
--0-0-0-0----0-0-0-0---------|-----0-0-0-0--------------------|
--0-0-0-0----0-0-0-0---------|-----0-0-0-0--------------------|
--0-0-0-0----0-0-0-0---------|-----0-0-0-0--------------------|


                                    |--3--|                   
   H.            E   E      Q.      S  S  S  Q    S  S  S  S  
------------------------|------------------------------------|
--13------------11------|------------------------------------|
--------------------13--|--12------12-13-12---------12-13-15-|
------------------------|-------------------15----L----------|
------------------------|------------------------------------|
------------------------|------------------------------------|


   H        E   E   E   E      E.   E.   E   Q     E   E   
---------------------------|------------------------------|
---------------------------|------------------------------|
--12--------L--------------|--13---15---13--12------------|
---------------13------13--|----------------------13--14--|
-------------------15------|------------------------------|
---------------------------|------------------------------|


   E   E   E   S  E.   E   E   E     Q    S  S  S  S  E   Q     S  S  
----------------------16--18--20--|--L----L-20-18-16-18--------------|
----------18--16-18---------------|----------------------18----------|
------17--------------------------|----------------------------15-17-|
--15------------------------------|----------------------------------|
----------------------------------|----------------------------------|
----------------------------------|----------------------------------|


  3    |--3--|  |--3--|  |--3--|  |--3--|  |--3--|  |--3--|  |--3--|  
  E.   S  S  S  S  S  S  S  S  S  S  S  S  S  S  S  S  S  S  S  S  S  
---------------------------------------------------------------------|
---------------------------------------------------------------------|
--L---15-17-20-17-15-17-20-17-15-17-20-17-15-17-20-17-15-17-16-15----|
------------------------------------------------------------------18-|
---------------------------------------------------------------------|
---------------------------------------------------------------------|


   |--3--|  |--3--|  |--3--|  |--3--|  |--3--|  |--3--|  3         
   S  S  S  S  S  S  S  S  S  S  S  S  S  S  S  S  S  S  Q.        
-----------------------------16-15--------------------------------|
--------16-18-16-------16-18-------18-16-------16-18-16-18br------|
--15-17----------15-17-------------------15-17--------------------|
------------------------------------------------------------------|
------------------------------------------------------------------|
------------------------------------------------------------------|


   H.           E   S  S     H         E.   E.   E   
-------------------------|--------------------------|
-------------------------|--------------------------|
--10------------L--------|----------------------13--|
-------------------13-11-|--10--------10---13-------|
-------------------------|--------------------------|
-------------------------|--------------------------|


   H        E   E   E   E      Q     Q     Q     Q     
------------L------11------|--------------------11----|
--11-----------11------14--|--13----11----13----------|
---------------------------|--------------------------|
---------------------------|--------------------------|
---------------------------|--------------------------|
---------------------------|--------------------------|


   Q.      S  S  Q.      S  S     Q.      S  S  Q     Q     
--13------11------------------|----------------------------|
-------------14-13------11----|-------------11-------------|
---------------------------13-|--12------12----12----------|
------------------------------|----------------------13----|
------------------------------|----------------------------|
------------------------------|----------------------------|


  S S S E  S S S S E  Q    S    E  S S S E  S S S S S Q     
-----------------------------|-----------------------------|
-----------------------------|-----------------------------|
-----------------------------|-----------------------------|
--3-3-3-3----3-3-3-3---------|-----3-3-3-3----3-3-3-3-6----|
--3-3-3-3----3-3-3-3---------|-----3-3-3-3----3-3-3-3-6----|
--3-3-3-3----3-3-3-3---------|-----3-3-3-3----3-3-3-3-6----|


  S S S E  S S S S E  Q    S    E  S S S E  E   S S  S  S S  S  S  
-----------------------------|------------------------------------|
-----------------------------|------------------------------------|
-----------------------------|--------------8--10-----------------|
--3-3-3-3----3-3-3-3---------|-----3-3-3-3--------8-10----8-------|
--3-3-3-3----3-3-3-3---------|-----3-3-3-3-------------11---10-11-|
--3-3-3-3----3-3-3-3---------|-----3-3-3-3------------------------|


  E  E  E  E  E  E  E  E     E  E  E  E  E  E  E  E   
--------------0-----------|--------------------------|
--------6--------6--------|--------8-----6--5--------|
-----5-----5--------5-----|-----5--------------7-----|
--0--------------------0--|--L--------------------0--|
--------------------------|--------------------------|
--------------------------|--------------------------|


  E  E  E  E  E  E  E  E     E  E  E  Q    E  E  E     E  E  E  E  E  E  E  E   
--------5-----------------|-------------------------|--------------0-----------|
-----6-----6--8--5--------|--------8-------5--8--5--|--------6--------6--------|
--------------------7-----|-----7-----7-------------|-----5-----5--------5-----|
--0--------------------0--|--L----------------------|--0--------------------0--|
--------------------------|-------------------------|--------------------------|
--L-----------------------|-------------------------|--------------------------|


  E  E  E  E  E  E  E  E     E  E  E  E  E  E  E  E   
--------------------------|--------5-----------------|
--------8-----6--5--------|-----6-----6--8--5--------|
-----5--------------7-----|--------------------7-----|
--L--------------------0--|--0--------------------0--|
--------------------------|--------------------------|
--------------------------|--L-----------------------|


  E  E  E  Q    E  E  E    
-------------------------||
--------8-------5--8--5--||
-----7-----7-------------||
--L----------------------||
-------------------------||
-------------------------||
Login or Register to remove this ad.

1 comment on Mechanical Rhythm

Awesome tab man. Learning

Awesome tab man. Learning the other song you tabbed (Those who bear the name) since this one is a bit above my level at the moment.