Ads

Main Theme (Xenoblade Chronicles) Guitar Tab

Submitted: Dec 04, 2014 by gudz (Last updated: Jan 13, 2015)

5
Average: 5 (7 votes)
Download | Listen
Game: Xenoblade Chronicles
Composer(s): Yasunori Mitsuda, Yoko Shimomura, Manami Kiyota, ACE+
Style: Arrangement, Fingerstyle
Series: Xeno

AutoScroll: Slow | Medium | Fast
Guitar Tuning: Drop D
Tempo: 120 BPM

Note: GP6 users should press Ctrl+M in order to see all voices

     ^                                        ^                  
     H        H           W                   H        H         
E||--6-----------------|-------------------|--------------------|
B||-----------8--------|--6----------------|--------------------|
G||--8-----------------|-------------------|--3--------0--------|
D||--8-----------------|-------------------|--1-----------------|
A||--------------------|-------------------|--1-----------------|
D||--------------------|-------------------|--------------------|


  W                   W                   W                 
-------------------|-------------------|-------------------|
-------------------|-------------------|-------------------|
-------------------|-------------------|-------------------|
--3----------------|-------------------|-------------------|
-------------------|--1----------------|--3----------------|
-------------------|-------------------|-------------------|


  Q    Q    Q    Q       Q    Q    Q    Q       W                 
----------------------|----------------------|-------------------|
-----------------3----|--1-------------------|-------------------|
--3---------0---------|-------3----2---------|--0----------------|
-------0--------------|-----------------0----|-------------------|
----------------------|----------------------|-------------------|
--5-------------------|--3-------------------|--1----------------|


  Q    Q    Q    Q       W                   Q    Q    Q    Q     
----------------------|-------------------|--6----5--------------|
----------------------|-------------------|------------6---------|
----------------------|--0----------------|-----------------7----|
--3---------0---------|-------------------|----------------------|
----------------------|-------------------|----------------------|
--0----0---------0----|--1----------------|----------------------|


  Q    H.              Q    Q    Q     Q       Q    Q    Q    Q     
--------------------|--6---------3----10----|--8----6----5---------|
--------------------|-------3---------------|-----------------3----|
--------------------|------------0----------|----------------------|
--8----7------------|-------0---------------|------------3---------|
--------------------|-----------------------|-------3--------------|
--------------------|--5--------------------|--3-------------------|


  Q    Q    Q    Q       Q    Q    H           Q    Q    Q    Q     
--3---------5----6----|---------------------|-------1----3---------|
----------------------|--6----4----3--------|--4--------------4----|
----------------------|---------------------|----------------------|
------------1---------|------------0--------|------------1---------|
-------1--------------|-------0-------------|-------1--------------|
--1-------------------|--0------------------|--1--------------1----|


  Q    Q    Q    Q        Q     Q    Q     Q       Q    Q    Q    E  E   
------------3----6----|-------------------------|--3---------2----L--L--|
--3-------------------|--11----10----8----10----|-----------------------|
----------------------|-------------------------|-----------------0--2--|
------------0---------|--------------8----------|------------0----------|
-------0--------------|---------8---------------|-------0---------------|
--0-------------------|---8---------------------|--0--------------------|


  H.           Q       Q    Q    Q    Q       H        Q    Q     
--------------------|----------------------|---------------------|
---------------3----|--1-------------------|---------------------|
--3-----------------|-------3----2---------|--0--------2----3----|
--------------------|-----------------0----|---------------------|
--------------------|----------------------|---------------------|
--5-----------------|--3-------------------|--1------------------|


  Q    Q    H           Q    Q    Q    Q       H        Q    Q     
---------------------|----------------------|---------------------|
---------------------|----------------------|---------------------|
---------------------|------------0---------|-----------0----3----|
--3----1----0--------|--1----3---------1----|--0------------------|
---------------------|----------------------|---------------------|
--0------------------|--1--------------1----|--0------------------|


  Q    Q    Q    Q       H        Q    E  E     H.           E  E   
----------------------|----------------------|---------------------|
----------------------|----------------------|---------------1-----|
--3----2----0----2----|--0-------------0--2--|--3---------------3--|
----------------------|-----------4----------|---------------------|
----------------------|----------------------|---------------------|
--3-------------------|--1--------0----------|--5------------------|


  Q    Q    Q    Q       Q    H        Q       Q    Q    H         
----------------------|---------------------|---------------------|
----------------------|---------------------|---------------------|
--2-------------------|-------0--------0----|---------------------|
-------3----0----3----|--3------------------|--3----0-------------|
----------------------|---------------------|------------1--------|
--3-------------------|--1------------------|--0------------------|


  H.           E  E     Q    Q    Q    Q       Q    Q    Q    Q     
---------------------|----------------------|----------------------|
---------------1--3--|--1--------------1----|--1----3--------------|
--3------------------|-------3----2---------|------------3---------|
---------------------|----------------------|----------------------|
---------------------|----------------------|----------------------|
--5------------------|--3-------------------|--1---------1----3----|


  H        H           H        E  E  E  E     H        E  E  E  E   
--------------------|-----------------------|-----------------------|
--------------------|--------------------3--|--3--------L--------3--|
--------------------|--0--------L-----0-----|-----------------0-----|
--------------------|--------------0--------|--------------0--------|
--------------------|-----------------------|-----------------------|
--5--------3--------|--5--------L--L--L--L--|--3--------------------|


  H        E  E  E  E     Q    Q    Q    Q       H        E  E  E  E   
-----------------------|----------------------|-----------------------|
--3--------L--------3--|--3----4----3----1----|--------------------3--|
-----------------0-----|----------------------|--0--------L-----0-----|
--------------0--------|----------------------|--------------0--------|
-----------------------|----------------------|-----------------------|
--1--------------------|--3-------------------|--5--------------------|


  H        E  E  E  E     H        E  E  E  E     E  E  E  E  E  E  E  E   
-----------------------|-----------------------|--------------------------|
--3--------L--------3--|--3--------L--------3--|--3--4--3--1--------------|
-----------------0-----|-----------------0-----|--------------3--5--3--2--|
--------------0--------|--------------0--------|--------------------------|
-----------------------|-----------------------|--------------------------|
--3--------------------|--1--------------------|--3-----------------------|


  Q    Q    H           Q    Q    H           Q    Q    Q    E  E   
------------6--------|--5------------------|--3--------------1-----|
---------------------|------------6--------|--------------------4--|
--0---------0--------|---------------------|-----------------------|
-------0-------------|------------3--------|------------1----------|
---------------------|-------3-------------|-------1---------------|
--5------------------|--3------------------|--1--------------------|


  Q    Q    Q    Q       Q    Q    H           Q    Q    H         
----------------------|------------6--------|--5---------8--------|
--3----4----3----1----|--3------------------|---------------------|
----------------------|------------0--------|---------------------|
------------1---------|-------0-------------|------------3--------|
-------1--------------|---------------------|-------3-------------|
--1-------------------|--5------------------|--3------------------|


   Q    Q    Q     E   E     Q    Q    Q    Q       E  Q    Q    Q    E   
--10--------------11--10--|--8---------6----5----|--6--------------------|
--------------------------|----------------------|-----------------------|
--------------------------|----------------------|-----------------------|
-------------8------------|------------3---------|-----------------------|
--------8-----------------|-------3--------------|-----------------------|
---8----------------------|--3-------------------|--5--5----5----5----5--|


  E  E  E  E  E  E  E  E     E  Q    Q    E  E  S S    E  Q    Q    E  E  S S  
--L-----5-----6-----8-----|--6---------------L--5-6-|--8---------------L--6-8-|
--------------------------|-------------------------|-------------------------|
--------------------------|-------------------------|-------------------------|
--------------------------|-------------------------|-------------------------|
--------------------------|-------------------------|-------------------------|
--5--5-----5-----5-----5--|--3--3----3----3-----3---|--3--3----3----3-----3---|


   Q.      Q     Q     E      E   Q     Q     E   E   E   
--10------15-----------L--|--15------------------13--11--|
--------------------------|------------------------------|
--------------------------|------------------------------|
--------------------------|------------------------------|
--------------------------|------------------------------|
---8------13----13----13--|--13--13----13----13----------|


   E  Q    Q    E  E  E     Q    Q    Q    E  E     H        E  E  E  E   
--10---------------8--6--|--5--------------3--5--|--3--------------------|
-------------------------|-------6----3----------|--------------------3--|
-------------------------|-----------------------|--0--------L-----0-----|
-------------------------|-----------------------|--------------0--------|
-------------------------|-----------------------|-----------------------|
---8--8----8----8-----8--|--3----3----3----3-----|--5--------------------|


  H        E  E  E  E     H        H           H        H         
-----------------------|-----------6--------|--5--------1--------|
--------------------3--|--------------------|--------------------|
--0--------L-----0-----|--0--------3--------|--2-----------------|
--------------0--------|--------------------|-----------3--------|
-----------------------|--------------------|--------------------|
--3--------------------|--1-----------------|--3--------3--------|


  H        E  E  E  E     H        E  E  E  E     H         H         
--3--------------------|-----------------------|---------------------|
--------------------3--|--------------------3--|-----------11--------|
--0--------L-----0-----|--0--------L-----0-----|--0------------------|
--------------0--------|--------------0--------|------------8--------|
-----------------------|-----------------------|---------------------|
--5--------------------|--3--------------------|--1---------8--------|


            |-----3----|        |-----3-----|                                   
   H        Q    Q     Q        Q     Q     Q    H           W                  
-----------------8----------|-----------------------------|-------------------||
--10--------8---------11----|--10----11----10----8--------|--L----------------||
----------------------------|--------------------7--------|--L----------------||
---7------------------------|-----------------------------|-------------------||
----------------------------|-----------------------------|-------------------||
---8--------8---------------|--------------------5--------|--L----------------||
Login or Register to remove this ad.

5 comments on Main Theme

This is one of the best tabs

5

This is one of the best tabs I've played in weeks - very well done.

Thank you, happy you liked it

Thank you, happy you liked it :D

That was beautiful. Great

5

That was beautiful. Great work!
If anything, it might be nice to have more than just the melody and bass line. Maybe some lower harmonies?

I'm happy you like it ^^

I'm happy you like it ^^

EDIT I managed to add some bass harmony following the original piano, just wait for me to create a correct txt tab ;)

Check this one

Updated with new basses ;)