Ads

Where We Used To Be (Xenoblade Chronicles 2) Guitar Tab

Submitted: Jun 04, 2021 by sosss13

0
Download | Listen
Game: Xenoblade Chronicles 2
Composer(s): Yasunori Mitsuda, Manami Kiyota, ACE, Kenji Hiramatsu
Style: Arrangement, Fingerstyle
Series: Xeno

AutoScroll: Slow | Medium | Fast
Where We Used To Be
~ Xenoblade Chronicles 2
Composed by: Yasunori Mitsuda
Arranged and tabbed by: sosss12

Download (gp,gp5,mp3,tab): https://drive.google.com/file/d/1AmbTsv8KfFMPgjPaY0dUqyyEuX1huLq_/view?u...

Steel Guitar (Capo 1)
      E  E  E  E  E  E     E  E  E  E  Q       E  E  E  E  E  E   
E ||--5-----------5--3--|--2----------------|-----------------0--|
B ||--3-----3-----3-----|--3-----3----------|--3-----------3-----|
F#||--5-----5-----5-----|--0-----------3----|-----0--1--3--3-----|
D ||--5--5-----5--5-----|-----0--2--0-------|--2-----------2-----|
A ||--------------------|-------------------|--------------------|
E ||--------------------|-------------------|--------------------|


  E  E  E  E  E  E     E  E  E  E  E  E     E  E  E  E  E  E   
-----------------5--|--5-----------5--7--|--5--------------2--|
--3--2--0--2--3-----|--3-----3-----------|--5-----------------|
--------------5-----|--5-----5-----5-----|--0-----0--3--0-----|
--4-----------4-----|--5--5-----5--5-----|--0--2--------0-----|
--------------------|--------------------|--------------------|
--------------------|--------------------|--------------------|


  E  E  E  E  E  E     E  E  E  E  E  E     H.              E  E  E  E  E  E   
--3--2--0-----------|--0-----------------|--2------------|--2-----------------|
--0--------3--0--3--|--0-----------0--2--|--2------------|--3--------3--2-----|
--------0-----------|--0-----0--2--------|--4------------|--5-----5-----------|
--2-----------------|--------------------|--4------------|-----4-----------4--|
--------------------|-----4--------------|---------------|--------------------|
--------------------|--------------------|---------------|--------------------|


  E  E  E  E  E  E     E  S T T E  E  E  E     E  E  E  E  E  E   
-----------0--------|-----------------------|--------------------|
--------------3--2--|--2----3-2-0-----3-----|--------0-----0--2--|
--------5-----5-----|-----------5-----------|-----0-----3--------|
-----4--------------|-----4--------4-----4--|--------------------|
--4-----------------|--2--------------------|--2-----------0-----|
--------------------|-----------------------|--------------------|


  E  E  E  E  E  E     E  E  E  E  E  E     E  E  E  E  E  E   
-----0--------------|--------------------|--------------------|
--3-----0-----------|--------------------|--------------0-----|
--------0-----1-----|--------1-----3--1--|--0-----1-----------|
--0--2-----0-----0--|-----0-----0--------|-----0-----0-----5--|
--------2-----------|--------------0-----|--------------------|
--------------------|--3-----------------|--2-----------------|


  E  E  E  E  E  E     E  E  E  E  E  E     E  E  E  E   E  E   
-----------3--2--0--|--2-----------9--5--|--------------10--9--|
-----------5--3--2--|--3-----2--3--------|-----------7---------|
--------1-----------|-----0--------------|-----0--8------------|
-----0--------------|--------------------|---------------------|
--------------------|--2-----------------|---------------------|
--3-----------------|--------------------|--7------------------|


  E  E  E  E   Q       E  E  E  E  Q       E  E  E  E  E  E   
-----------7--14----|--7-----------5----|--------------------|
--------------------|--0-----------5----|--3--------3--2--3--|
-----0--7-----------|--0-----0----------|--------0-----------|
--------------------|-----0-----0-------|-----2-----2--------|
--------------------|-------------------|--------------0-----|
--7-----------------|--2----------------|--2-----------------|


  E  E  E  E  Q       E  E  E  E  E  E     E  E  E  E  Q     
--3-----------2----|-----------------2--|--7-----------5----|
--5-----------0----|--0-----0--2--3--5--|--0-----------5----|
--------------0----|--3--0--------5-----|--0-----0-----5----|
--0--------0-------|--0-----------------|-----0-----0-------|
-----2--4----------|--------------------|-------------------|
-------------------|--------------------|--2----------------|


  E  E  E  E  E  E     E  E  E  E  E  E     E  E  E  E  E  E     H.            
-----------0--2-----|--2--3--0-----------|--------------------|---------------|
--3--------2--3--0--|--3--------0--3-----|--2--------------0--|--2------------|
--5-----5-----------|--------0--------5--|-----------2--4-----|--0------------|
-----4--------------|--2-----------------|--4-----4-----------|--4------------|
--------------------|--------------------|-----4--------------|--4------------|
--------------------|--------------------|--------------------|---------------|


  E  E  E  E  E  E     E  E  E  S T T E  E     E  E  E  E  E  E   
--------2-----5-----|--0--------------------|--------2-----------|
--0--------3--5--3--|-----3--2----3-2-0-----|--0-----------0-----|
--------0-----------|-----0-----3-----5--3--|--------0--------3--|
-----0--------------|--------2--------------|--------0-----4-----|
--2-----------------|--4-----------------4--|--2--4-----4--------|
--------------------|-----------------------|--------------------|


  E  E  Q    Q       E  E  E  E  E  E     E  E  E  S T T E  E   
--------2----5----|--7-----2-----5-----|--0--------------------|
--0-----2----3----|--0-----2--3--5--3--|-----3--2----3-2-0-----|
--------3----5----|--0-----0-----0-----|-----0-----3-----5--3--|
-------------0----|-----0--------------|--------2--------------|
--0--2--4---------|--------------------|--4-----------------4--|
------------------|--7-----------------|-----------------------|


  E  E  E  E  E  E     E  E  E  E  E  E     E  E  E  E  E  E     H.             
--------2-----------|--------2-----------|--------------------|--7------------||
--0-----------0-----|--0-----------0-----|--0-----------------|--0------------||
--------0--------3--|--------0--------3--|-----------------0--|--0------------||
--------0-----------|--------0-----------|--------------2-----|--0------------||
--2--4-----4--2--0--|--2--4-----4--2--0--|--2-----2--4--------|---------------||
--------------------|--------------------|-----2--------------|--7------------||




Duration Legend
---------------
W - whole
H - half
Q - quarter
E - 8th
S - 16th
T - 32nd
X - 64th
. - note dotted
|-n-|  - n-tuplets


Tablature Legend
----------------
L - tied note
x - dead note
g - grace note
(n) - ghost note
> - accentuded note
NH - natural harmonic
AH - artificial harmonic
TH - tapped harmonic
SH - semi harmonic
PH - pitch harmonic
h - hammer on
p - pull off
b - bend
br - bendRelease
pb - preBend
pbr - preBendRelease
brb - bendReleaseBend
\n/ - tremolo bar dip
\n - tremolo bar dive
-/n - tremolo bar Release up
/n\ - tremolo bar inverted dip
/n - tremolo bar return
-\n - tremolo bar Release down
S - shift slide
s - legato slide
/ -  slide into from below or out of upwards
\ -  slide into from above or out of downwards
~ - vibrato
W - wide vibrato
tr - trill
TP - tremolo picking
T - tapping
S - slap
P - pop
< - fade in
^ - brush up
v - brush down
Login or Register to remove this ad.