Login or Register to remove this ad.

Elysium in the Blue Sky (Xenoblade Chronicles 2) Guitar Tab

Submitted: Mar 16, 2018 by sosss12

5
Average: 5 (1 vote)
Download | Listen
Game: Xenoblade Chronicles 2
Composer(s): Yasunori Mitsuda, Manami Kiyota, ACE, Kenji Hiramatsu
Style: Arrangement, Fingerstyle
Series: Xeno

AutoScroll: Slow | Medium | Fast
Elysium in the Blue Sky
From Xenoblade Chronicles 2
Arranged by sosss12

Gtr I (E A D G B E) - 'Elysium in the blue Sky'

  Q=77
 3/4
  Gtr I
  Q  Q  E E   Q  Q  Q    Q  E E E E   E E E E E E
|-----------|----------|------------|-------------|
|-----------|----------|------------|-------------|
|-3-----3-1-|-0--------|------------|-----------3-|
|----1------|-1--1-----|-1------1-3-|-1-0---0-1---|
|-----------|----1--1--|------------|-----3-------|
|-----------|-------3--|----3-4-----|-------------|


  Q  Q  E E   Q  H       E E E E E E
|-----------|---------|--------------|
|---------1-|---------|--------------|
|-3-----3---|-3-------|-^1-0---------|
|-1--1------|-1--1----|-^1---3-1---1-|
|-----------|---------|-^3-------3---|
|-----------|---------|--------------|


                          Q=85
   H.         H.          H.
|----------|----------||--3------------|
|----------|----------||o-1----1-4-3---|
|----------|-^0-------||-----0-------0-|
|-^3-------|-^0-------||---------------|
|-^3-------|-^2-------||o-3------------|
|----------|----------||---------------|
                          E  E E E E E


  E E E E E E   E. T T H
|-------1-----|-------------|
|-----1---4-3-|-3--4-3-1----|
|---0---------|--------0----|
|-------------|-------------|
|-3-----------|-3------3----|
|-------------|-------------|


  E E E E E E   E  E H         E E E Q  S S   H.
|-------------|----1---------|--------------|--------------|
|---------1-3-|-4----1-------|--------------|--------------|
|-----0-3-----|----------0---|-----0-3--3-1-|-0----0-3-0---|
|-------------|--------------|--------------|--------------|
|---3---------|--------3---3-|---3----------|----3-------3-|
|-3-----------|-4------------|-4------------|-4------------|
                Q.     E E E                  E  E E E E E


                                             H.=H
  E E E E E E   H.             E E E E E E   E E E E Q
|-------------|--------------|-------------|---------3--||
|-------------|----------3---|---------4-3-|-------1----||
|-----0-1-0---|-0----------3-|-------0-----|-----0------||
|---------1-3-|-1----0-1-----|-----1-------|-----1------||
|---3---3-----|-3------------|---3---------|---3--------||
|-4-----------|----3---------|-3-----------|-3----------||
                E  E E E E E


  Q=85
  H       Q     H        E E   H       Q      Q.   E E E   H       Q
|-8-------6---|--------------|-------------|-------------|-8-------6---|
|-------------|--------------|-9-------8---|-----------8-|-------------|
|-----0-------|-8--------7-8-|-----0-------|-------7-8---|-----0-----3-|
|-6---------8-|---8-10-8-----|-------------|-10----------|-6-----------|
|-------------|-8------------|-8-----------|-------------|-------------|
|---8---8-----|--------------|---8---8---8-|--8----------|---8---8-----|
  E E E E E E   E E  E E       E E E E E E                 E E E E E E


                               H.=H
  Q.     E E E   E E Q   Q     H.
|--------1-3---|-3-4-1-------|--------------|--------||
|-4------3-1---|-4-------4---|-3--------0-1-|-^3-----||
|------0-----0-|-----0---1---|------0-2-----|-^0-----||
|----1---------|-3-----3-----|----0---------|-^0-----||
|-3------------|---3-------3-|--------------|--------||
|--------------|-------------|-3------------|-^3-----||
  E  E E         E E E E E E   E  E E E E E    H.


  Q=85
  Q   Q   Q     E E E. T T E E   Q  Q  E E   Q   Q   Q
|-------------|----------------|-----------|-------------|
|-------------|----------------|-----------|-------------|
|-----0---3---|----------------|----0------|-----0---3---|
|-------------|-3-1-0--1-0-----|----1------|---------5---|
|-3-----3-----|-1---0------3-1-|-3--1----1-|-3-----3-----|
|---3-------3-|----------------|-4---------|---1-------1-|
  E Q   Q   E   Q   Q                        E Q   Q   E


  Q   Q   Q     E E E. T T E E    Q  Q  E E   Q  Q  E E
|-----3---6---|-1--------------|-----3------|----3------|
|-1---1---4-4-|-3-4-3--4-3-1---|-^1--4------|-1--1------|
|-0-----------|-3---3--------3-|-^0--5----3-|----3----3-|
|-------1-----|----------------|-^1---------|-3---------|
|-------------|----------------|------------|-----------|
|---3---------|----------------|------------|-----------|
  E Q   Q   E


                 H.=H
  H.
|--------------|-------3-----|-6-----||
|-1------------|-3---1---3-4-|-------||
|-0----------0-|---3---------|-------||
|-1------0-1---|-------------|-------||
|-3----3-------|-------------|-------||
|----3---------|-------------|-------||
  E  E E E E E   E E E E E E   H.


  Q=60         H.=H
  Q  E E E E   Q  E E E E   Q  E E
|-8--6---6-8-|----6-------|---------||
|-8----8-----|-6----8-6-8-|-1----1-o||
|-8--7---6---|-6--5---5---|----3----||
|------------|----0-------|---------||
|----5-------|-4----------|-1--1---o||
|-8--6---6---|-4--6---6---|-3--4----||
  Q  Q   Q     Q  Q         Q  Q
Login or Register to remove this ad.