Ads

The Maw (Halo) Guitar Tab

Submitted: May 03, 2008 by sunvsrhinovirus (Last updated: May 03, 2008)

4.666665
Average: 4.7 (3 votes)
Download | Listen
Game: Halo
Composer(s): Michael Salvatori, Martin ODonnel
Style: Transcription

AutoScroll: Slow | Medium | Fast
Guitar
     H        Q    Q       Q    Q    Q    Q       H        Q    Q     
E||---------------------|----------------------|---------------------|
B||----------------0----|--1--------------0----|---------------------|
G||-----------2---------|------------2----0----|----------------0----|
D||--0------------------|-------3--------------|--0--------3---------|
A||---------------------|----------------------|---------------------|
E||---------------------|----------------------|---------------------|


  Q    Q    Q    Q       H        Q    Q       Q    Q    Q    Q     
----------------------|---------------------|----------------------|
----------------------|----------------1----|--3---------0----1----|
--2--------------0----|-----------2---------|-------0---------2----|
------------3----2----|--0------------------|----------------------|
-------3--------------|---------------------|----------------------|
----------------------|---------------------|----------------------|


  H        H           H        Q    Q       H        Q    Q     
--------------------|---------------------|---------------------|
--3-----------------|--3-------------0----|--0--------0----1----|
--4--------2--------|--4--------2----4----|---------------------|
--5--------3--------|--5--------3----2----|--4------------------|
-----------5--------|---------------------|--2------------------|
--------------------|---------------------|---------------------|


  Q    Q    Q    Q       Q    Q    Q    Q       Q    Q    H         
----------------------|----------------------|---------------------|
----------------------|----------------------|------------1--------|
--2----0--------------|--0-------------------|--2------------------|
--2---------3----0----|----------------------|---------------------|
----------------------|-------3----0----2----|-------3-------------|
----------------------|----------------------|---------------------|


  W                   W                  
-------------------|-------------------||
-------------------|--3----------------||
--5----------------|--0----------------||
--3----------------|--0----------------||
--5----------------|-------------------||
-------------------|-------------------||




Duration Legend
---------------
W - whole
H - half
Q - quarter
Login or Register to remove this ad.

2 comments on The Maw

brings back lots of memories

brings back lots of memories of 2003

epic

5

this tab is awesome and easy to play, Halo4Life ;)