Music Box Theme (Fable II) Guitar Tab

Submitted: Dec 04, 2008 by Exonence

5
Average: 5 (1 vote)
Download | Listen
Game: Fable II
Composer(s): Russel Shaw
Style: Transcription

AutoScroll: Slow | Medium | Fast
Fable 2 - Music Box Theme
Composed by Danny Elfman and Russel Shaw (2008)

Tabbed by Exonence
Tabbed 11/14/08


e|-6~---9----13~----|---11-13-14~---11-|--13~------------|
B|------------------|------------------|-----------------|
G|------------------|------------------|-----------------|
D|------------------|------------------|-----------------|
A|------------------|------------------|-----------------|
E|------------------|------------------|-----------------|

e|-11~------9-11-13-|----9-8~----14-13~|
B|------------------|------------------|
G|------------------|------------------|
D|------------------|------------------|
A|------------------|------------------|
E|------------------|------------------|

e|----18~---18~-----|-16-18-20~--16-13-|
B|------------------|------------------|
G|------------------|------------------|
D|------------------|------------------|
A|------------------|------------------|
E|------------------|------------------|

e|---11-13-14-13~---|--9-8-11-16-18~---|
B|------------------|------------------|
G|------------------|------------------|
D|------------------|------------------|
A|------------------|------------------|
E|------------------|------------------|

Login or Register to remove this ad.

8 comments on Music Box Theme

god, i cant play this on my

god, i cant play this on my acustic cuz i dont have enough frets

what?

i think its supose to be 2-0 ,becuase i dont think there are 20 frets

with all due respect, have

with all due respect, have you ever seen an electric guitar?

Acoustic frets

I have 20 frets on my acoustic, an Epiphone DR-100. Nothing fancy, but it works. How many frets do y'all have?

Lusus Naturae

Electric frets

I've got 25 on my Electric B.C. Rich Bich, I dunno if thats normal for an electric but it's more than my moms acoustic

also, Nice tab, great job :P

frets

i have 22 frets on my electric, ive heard thats suposed to be the standard for electrics. aparently 22 frets equates to a "full size" electric guitar

You Could Try Artificial

You Could Try Artificial Harmonics If Your On Acoustic. Or Classical Guitar. :D You Can Get The Pitch. ^^

Nice guitar

I have also electric guitar and have 20 frets on my guitar. I learned lot of things from musical advisors and it was really a great learning. More