Gallow's End (World of Warcraft) Guitar Tab

Submitted: Jan 19, 2010 by kenor

5
Average: 5 (3 votes)
Download | Listen
Game: World of Warcraft
Composer(s): David Arkenstone, Derek Duke, Jason Hayes
Style: 2 or more instruments, Arrangement, Fingerstyle

AutoScroll: Slow | Medium | Fast
Gallow's End
~World of Warcraft~ (Taverns of Azeroth)
Composed by: David Arkenstone
Transcribed by: kenor

Rhytm: 3/4 metrum


Guitar:
-------


     E  E  E  Q.        H.              E  E  E  Q.        H.            
E||--------0---------|--L------------|--------0---------|--L------------|
B||-----0-----1------|--L------------|-----0-----1------|--L------------|
G||------------------|--L------------|------------------|--L------------|
D||--2---------------|--L------------|--2---------------|--L------------|
A||------------------|---------------|------------------|---------------|
E||------------------|---------------|------------------|---------------|


  E  E  E  E  E  E     E  E  E  E  E  E     E  E  E  E  E  E     E  E  E  E  E  E   
--------2--------3--|--------2-----------|--------2--------3--|--------2-----------|
-----0--------1-----|-----0-----------3--|-----0--------1-----|-----0-----------3--|
--------------------|--------------3-----|--------------------|--------------3-----|
--2--------2--------|--2--------2--------|--2--------2--------|--2--------2--------|
--------------------|--------------------|--------------------|--------------------|
--------------------|--------------------|--------------------|--------------------|


     E  E  E  E  E  E     E  E  E  E  E  E     E  E  E  E  E  E     E  E  E  E  E  E   
||---------2--------3--|--------2-----------|--------2--------3--|--------2-----------|
||------0--------1-----|-----0-----------3--|-----0--------1-----|-----0-----------3--|
||*--------------------|--------------3-----|--------------------|--------------3-----|
||*--2--------2--------|--2--------2--------|--2--------2--------|--2--------2--------|
||---------------------|--------------------|--------------------|--------------------|
||---------------------|--------------------|--------------------|--------------------|


  E  E  E  E  E  E     E  E  E  E  E  E     E  E  E  E  E  E     E  E  E  E  E  E   
--------5--------6--|--------5--------1--|--------5--------6--|--------5--------1--|
-----3--------4-----|-----3--------2-----|-----3--------4-----|-----3--------2-----|
--0--------0--------|--0--------0--------|--0--------0--------|--0--------0--------|
--------------------|--------------------|--------------------|--------------------|
--------------------|--------------------|--------------------|--------------------|
--------------------|--------------------|--------------------|--------------------|


  E  E  E  E  E  E     E  E  E  E  E  E     E  E  E  E  E  E     E  E  E  E  E  E   
--------2--------3--|--------2-----------|--------2--------3--|--------2-----------|
-----0--------1-----|-----0-----------3--|-----0--------1-----|-----0-----------3--|
--------------------|--------------3-----|--------------------|--------------3-----|
--2--------2--------|--2--------2--------|--2--------2--------|--2--------2--------|
--------------------|--------------------|--------------------|--------------------|
--------------------|--------------------|--------------------|--------------------|


  E  E  E  E  E  E     E  E  E  E  E  E     E  E  E  E  E  E     E  E  E  E  E  E   
--------2--------3--|--------2-----------|--------2--------3--|--------2-----------|
-----0--------1-----|-----0-----------3--|-----0--------1-----|-----0-----------3--|
--------------------|--------------3-----|--------------------|--------------3-----|
--2--------2--------|--2--------2--------|--2--------2--------|--2--------2--------|
--------------------|--------------------|--------------------|--------------------|
--------------------|--------------------|--------------------|--------------------|


  E  E  E  E  E  E     E  E  E  E  E  E     E  E  E  E  E  E     E  E  E  E  E  E   
--------5--------6--|--------5--------1--|--------5--------6--|--------5--------1--|
-----3--------4-----|-----3--------2-----|-----3--------4-----|-----3--------2-----|
--0--------0--------|--0--------0--------|--0--------0--------|--0--------0--------|
--------------------|--------------------|--------------------|--------------------|
--------------------|--------------------|--------------------|--------------------|
--------------------|--------------------|--------------------|--------------------|


  E  E  E  E  E  E     E  E  E  E  E  E     E  E  E  E  E  E     E  E  E  E  E  E   
--------5--------6--|--------5--------1--|--------5--------6--|--------5--------1--|
-----3--------4-----|-----3--------2-----|-----3--------4-----|-----3--------2-----|
--0--------0--------|--0--------0--------|--0--------0--------|--0--------0--------|
--------------------|--------------------|--------------------|--------------------|
--------------------|--------------------|--------------------|--------------------|
--------------------|--------------------|--------------------|--------------------|


  E  E  E  Q.        H.              E  E  E  Q.        H.              
--------0---------|--L------------|--------0---------|--L-------------||
-----0-----1------|--L------------|-----0-----1------|--L-------------||
------------------|--L------------|------------------|--L------------*||
--2---------------|--L------------|--2---------------|--L------------*||
------------------|---------------|------------------|----------------||
------------------|---------------|------------------|----------------||


  E  E  E  Q.        H.              E  E  E  Q.        H.             
--------0---------|--L------------|--------0---------|--L------------||
-----0-----1------|--L------------|-----0-----1------|--L------------||
------------------|--L------------|------------------|--L------------||
--2---------------|--L------------|--2---------------|--L------------||
------------------|---------------|------------------|---------------||
------------------|---------------|------------------|---------------||



Flute:
------


                                                                       H.            
E||-------|-------|-------|-------|-------|-------|-------|-------||----------------|
B||-------|-------|-------|-------|-------|-------|-------|-------||----------------|
G||-------|-------|-------|-------|-------|-------|-------|-------||*---------------|
D||-------|-------|-------|-------|-------|-------|-------|-------||*--2------------|
A||-------|-------|-------|-------|-------|-------|-------|-------||----------------|
E||-------|-------|-------|-------|-------|-------|-------|-------||----------------|


  H.              Q.     Q.        Q.     Q.        Q.     Q.        H.            
---------------|----------------|----------------|----------------|---------------|
---------------|--0------1------|--L-------------|---------3------|--L------------|
--0------------|----------------|---------3------|--0-------------|---------------|
---------------|----------------|----------------|----------------|---------------|
---------------|----------------|----------------|----------------|---------------|
---------------|----------------|----------------|----------------|---------------|


  Q.     Q.        Q.     Q.        Q.     Q.        H.              Q.     Q.      
----------------|----------------|---------0------|--2------------|----------------|
--L------4------|--3------2------|--0-------------|---------------|---------0------|
----------------|----------------|----------------|---------------|--0-------------|
----------------|----------------|----------------|---------------|----------------|
----------------|----------------|----------------|---------------|----------------|
----------------|----------------|----------------|---------------|----------------|


  Q.     Q.        H.              Q.     Q.        H.              H.            
----------------|---------------|----------------|---------------|---------------|
--L-------------|--0------------|--L-------------|---------------|---------------|
---------3------|---------------|---------3------|--0------------|--L------------|
----------------|---------------|----------------|---------------|---------------|
----------------|---------------|----------------|---------------|---------------|
----------------|---------------|----------------|---------------|---------------|


  E  E  E  Q.        Q.     Q.        E  E  E  Q.        Q.     Q.        H.            
-----6--5--3------|--L------1------|------------------|----------------|---------------|
------------------|----------------|--2--3--4--3------|--L------2------|--3------------|
------------------|----------------|------------------|----------------|---------------|
------------------|----------------|------------------|----------------|---------------|
------------------|----------------|------------------|----------------|---------------|
------------------|----------------|------------------|----------------|---------------|


  Q.     Q.        H.              Q.     E  E  E     H.              H.            
----------------|---------------|------------------|---------------|---------------|
--L------2------|--3------------|--L------2--------|---------------|---------------|
----------------|---------------|------------0-----|---------------|---------------|
----------------|---------------|---------------3--|--2------------|--L------------|
----------------|---------------|------------------|---------------|---------------|
----------------|---------------|------------------|---------------|---------------|


---------------|----------------||---------------|---------------|---------------|
---------------|----------------||---------------|---------------|---------------|
---------------|---------------*||---------------|---------------|---------------|
---------------|---------------*||---------------|---------------|---------------|
---------------|----------------||---------------|---------------|---------------|
---------------|----------------||---------------|---------------|---------------|


---------------||
---------------||
---------------||
---------------||
---------------||
---------------||




Legend:
-------
H - half
Q - quarter
E - 8th
. - note dotted
Login or Register to remove this ad.

4 comments on Gallow's End

Wow, this is hauntingly

5

Wow, this is hauntingly beautiful and easy to play at the same time! Well done

very nice as all yr tabs

5

very nice as all yr tabs anyway

Thank you both :)

Thank you both :)
diralark: I think that Teldrassil is too difficult for me to tab. Too ambient I'd say. I was thinking about the Temple of Moon or the Song of Elune (Ashenvale).

I thought it s possible to

5

I thought it s possible to make tab about a specific part of it (from 2"45 to the end -- in http://www.youtube.com/watch?v=yTmnuibyOos). Coz I can lesson a melody + bass note then pull notes seems possible. But not sure the result will be very nice / interesting to play on a guitar ? Like u said most of beautiful Teldrassil tune is a complex melting pot of instruments, like a aromatic soup, difficult or impossible to express with only one isolate instrument. Anyway Temple of Moon or the Song of Elune are good alternative :)