A Call to Arms (World of Warcraft) Bass/Guitar Tab

Submitted: Jan 02, 2010 by kenor (Last updated: Apr 05, 2010)

5
Average: 5 (1 vote)
Download | Listen
Game: World of Warcraft
Composer(s): David Arkenstone, Derek Duke, Jason Hayes
Style: 2 or more instruments, Arrangement, Natural harmonics

AutoScroll: Slow | Medium | Fast
A Call to Arms
~World of Warcraft~ 
Composed by: Jason Hayes, Tracy W. Bush, Derek Duke, Glenn Stafford
Arranged by: kenor

                                    
1st Guitar (Capo 4)
-------------------

                                               ^                          ^             
     W                   H        E  Q.        Q    H        Q       Q    H.            
E||-------------------|---------------------|-------1--------0----|--L----2------------|
B||-------------------|-----------1--0------|--3------------------|-------3------------|
G||-------------------|--2------------------|--2------------------|--------------------|
D||-------------------|---------------------|---------------------|--------------------|
A||-------------------|---------------------|---------------------|--------------------|
E||-------------------|---------------------|---------------------|--------------------|


       ^                                                              
  Q    H.              W                   W     Q.     E  Q.     E   
-------0------------|--L----------------|-----|----------------------|
--L----1------------|--L----------------|-----|----------------------|
-------2------------|--L----------------|-----|--2---------2---------|
--------------------|-------------------|-----|---------2---------2--|
--------------------|-------------------|-----|----------------------|
--------------------|-------------------|-----|----------------------|


  E  E  Q    E  E  Q       Q    E  E  Q    Q       W                   W
------------------------|-----------------------|-------------------|-------------------|
-----1--0---------------|-----------------------|-------------------|-------------------|
--2----------2--0-------|-----------------------|-------------------|-------------------|
-------------------2----|--0-------0--2---------|-------------------|-------------------|
------------------------|-------3----------2----|--0----------------|-------------------|
------------------------|-----------------------|-------------------|-------------------|


  ^                                                                            
  W                   W                   H.              Q.     E  Q.     E   
--0----------------|--L----------------|---------------|----------------------|
--0----------------|--L----------------|---------------|----------------------|
--2----------------|--L----------------|---------------|--2---------2---------|
-------------------|-------------------|--2------------|---------3---------2--|
--0----------------|--L----------------|---------------|----------------------|
-------------------|-------------------|---------------|----------------------|


  E  E  Q    Q       Q.     E  Q.     E     E  E  Q    E  E     W                 
-----0------------|----------------------|-----3--1-------0--|--1----------------|
--------3----0----|--2---------2---------|-------------3-----|-------------------|
------------------|---------2---------2--|--4----------------|-------------------|
--3---------------|----------------------|-------------------|-------------------|
------------------|----------------------|-------------------|-------------------|
------------------|----------------------|-------------------|-------------------|


  W                   Q.     E  Q       H.              H.              Q.     E  Q     
--0----------------|-----------------|---------------|---------------|-----------------|
-------------------|-----------------|---------------|---------------|-----------------|
-------------------|--2------2--2----|--L------------|--L------------|--2------2--2----|
-------------------|--2------2--2----|--L------------|--L------------|--2------2--2----|
-------------------|-----------------|---------------|---------------|-----------------|
-------------------|-----------------|---------------|---------------|-----------------|


  H.              Q.     E  Q       H.              H.              Q.     E  Q     
---------------|-----------------|---------------|---------------|-----------------|
---------------|-----------------|---------------|---------------|-----------------|
--2------------|--2------2--2----|--2------------|--1------------|--2------2--2----|
--3------------|--2------2--2----|--2------------|--2------------|--2------2--2----|
---------------|-----------------|---------------|---------------|-----------------|
---------------|-----------------|---------------|---------------|-----------------|


  H.              H.              Q.     E  Q       H.              H.            
---------------|---------------|-----------------|---------------|--7------------|
---------------|---------------|--3------3--3----|---------------|--8------------|
--L------------|--L------------|--4------4--4----|--4------------|---------------|
--L------------|--L------------|-----------------|--5------------|---------------|
---------------|---------------|-----------------|---------------|---------------|
---------------|---------------|-----------------|---------------|---------------|


  H.              H.              H.              Q.     Q.        H.            
--7------------|--L------------|--L------------|----------------|---------------|
--7------------|--L------------|--L------------|----------------|---------------|
---------------|---------------|---------------|---------4------|--3------------|
---------------|---------------|---------------|--6------6------|--4------------|
---------------|---------------|---------------|--6-------------|---------------|
---------------|---------------|---------------|----------------|---------------|


  Q.     Q.        H.              Q.     Q.        H.              Q.     Q.      
----------------|---------------|----------------|---------------|----------------|
----------------|---------------|----------------|---------------|--5------5------|
--3------3------|--1------------|--1------1------|--1------------|--3------6------|
--4------4------|--2------------|--2------2------|--2------------|--6-------------|
----------------|---------------|----------------|---------------|----------------|
----------------|---------------|----------------|---------------|----------------|


  H.              Q.     Q.        H.              Q.     Q.        H.            
---------------|----------------|---------------|--0------0------|---------------|
--4------------|---------4------|--4------------|--2------2------|--2------------|
--4------------|--4------4------|--4------------|----------------|--3------------|
---------------|--6-------------|---------------|----------------|---------------|
---------------|----------------|---------------|----------------|---------------|
---------------|----------------|---------------|----------------|---------------|


  Q.     Q.        H.              H.              Q    E  Q    E     Q    Q    Q     
----------------|---------------|---------------|------------------|-----------------|
----------------|--0------------|---------------|------------------|-----------------|
--4------4------|--1------------|--3------------|--4-------4-------|--6----6----3----|
--6------6------|--1------------|--1------------|--6-------6-------|--6----6----6----|
----------------|---------------|---------------|--6-------6-------|--6----6----6----|
----------------|---------------|---------------|------------------|-----------------|


  Q    E  Q    E     Q       Q    E  Q    E     Q    Q    Q       Q    E  Q    E   
------------------|-------|------------------|-----------------|------------------|
------------------|-------|------------------|-----------------|------------------|
--4-------4-------|-------|--4-------4-------|--6----6----3----|--4-------4-------|
--6-------6-------|-------|--6-------6-------|--6----6----6----|--6-------6-------|
--6-------6-------|-------|--6-------6-------|--6----6----6----|--6-------6-------|
------------------|-------|------------------|-----------------|------------------|


  Q       H        Q    Q       Q    H.              W                 
-------|----------------0----|--7----6------------|--L----------------|
-------|-----------4---------|--------------------|-------------------|
-------|---------------------|--------------------|-------------------|
-------|---------------------|--------------------|-------------------|
-------|---------------------|--------------------|-------------------|
-------|---------------------|--------------------|-------------------|


                      v                              
  W                   W                              
-------------------|--7----------------||
-------------------|--4----------------||
-------------------|--4----------------||
-------------------|--6----------------||
-------------------|-------------------||
-------------------|-------------------||




2nd Guitar (Capo 4)
-------------------



                                                          ^         
     W         W         H        Q    Q       E  E  Q    H         
E||---------|---------|---------------------|----------------------|
B||---------|---------|---------------------|----------------------|
G||---------|---------|---------------------|----------------------|
D||---------|---------|---------------------|-------------0--------|
A||---------|---------|-----------3----2----|--L--0-------0--------|
E||---------|---------|---------------------|--------0-------------|


          NH                                           ^                                 
  Q       H.              W                   H        H            W       W       W
-------<>12------------|--L----------------|-----------0--------|-------|-------|-------|
-----------------------|-------------------|-----------0--------|-------|-------|-------|
-----------------------|-------------------|-----------2--------|-------|-------|-------|
--L--------------------|-------------------|--------------------|-------|-------|-------|
--L--------------------|-------------------|--------------------|-------|-------|-------|
-----------------------|-------------------|--------------------|-------|-------|-------|


                             NH          ^                           
   W       W      H          H           W                     W     
-------|-------|----------------------|-------------------|---------|
-------|-------|----------------------|-------------------|---------|
-------|-------|----------------------|--2----------------|---------|
-------|-------|----------------------|--2----------------|---------|
-------|-------|-----------<>7--------|--L----------------|---------|
-------|-------|----------------------|-------------------|---------|


  ^        ^            ^                                         ^               
  H        Q    Q       Q    Q    E  E     Q    Q    Q    Q       Q    Q    Q     
---------------------|------------------|-----------------0----|-----------------|
---------------------|------------------|-----------------2----|--3--------------|
-----------2---------|--2---------0-----|--0-------------------|--2---------2----|
--3--------3----2----|--3------------0--|-------3----2---------|--3---------3----|
--3--------3---------|--0---------------|--2---------0---------|--2----0---------|
--1--------1---------|-------1----------|----------------------|-----------------|


  ^                      ^           ^                                                   
  Q    Q    Q    Q       E  E  E  E  H           E  E  E  E  E  E     E  E  E  E  E  E   
------------1---------|-----------------------|-----------0--5--7--|--8--7--5--0--------|
-------3--------------|--0-----------0--------|-----0--1-----------|--------------1--0--|
--2-------------------|--2-----------1--------|--2-----------------|--------------------|
--3-------------------|--2-----2-----2--------|--------------------|--------------------|
--1--------------0----|-----2-----2--2--------|--------------------|--------------------|
----------------------|--0-----------0--------|--------------------|--------------------|


  E  E  E  E  E  E     E  E  E  E  E  E     E  E  E  E  E  E     E  E  E  E  E  E   
-----------1--------|-----------0--------|-----------1--------|-----------5--------|
--------1-----1-----|--------1-----1-----|--------1-----1-----|--------5-----5-----|
-----2-----------2--|-----2-----------2--|-----2-----------2--|-----5-----------5--|
--------------------|--------------------|--------------------|--------------------|
--------------------|--0-----------------|--------------------|--0-----------------|
--1-----------------|--------------------|--1-----------------|--------------------|


  E  E  E  E  E  E     E  E  E  E  E  E     E  E  E  E  E  E     E  E  E  E  E  E   
-----------5--------|-----------4--------|-----------5--------|-----------0--------|
--------5-----5-----|--------5-----5-----|--------5-----5-----|--------1-----1-----|
-----4-----------4--|-----4-----------4--|-----5-----------5--|-----2-----------2--|
--------------------|--------------------|--------------------|--------------------|
--------------------|--------------------|--0-----------------|--0-----------------|
--0-----------------|--0-----------------|--------------------|--------------------|


  E  E  E  E  E  E     E  E  E  E  E  E     E  E  E  E  E  E     E  E  E  E  E  E   
-----------0--------|--------------------|-----------0--------|-----------0--------|
--------1-----1-----|-----------3--------|--------0-----0-----|--------0-----0-----|
-----0-----------0--|--------0-----0-----|-----0-----------0--|-----0-----------0--|
--------------------|-----0-----------0--|--------------------|--------------------|
--3-----------------|--2-----------------|--------------------|--2-----------------|
--------------------|--------------------|--0-----------------|--------------------|


  E  E  E  E  E  E     E  E  E  E  E  E     E  E  E  E  E  E     E  E  E  E  E  E   
-----------2--------|-----------2--------|-----------4--------|--------------------|
--------4-----4-----|--------4-----4-----|--------4-----4-----|-----------4--------|
-----4-----------4--|-----4-----------4--|-----4-----------4--|--------4-----4-----|
--------------------|--------------------|--------------------|-----6-----------6--|
--2-----------------|--------------------|--------------------|--------------------|
--------------------|--2-----------------|--4-----------------|--4-----------------|


  E  E  E  E  E  E     E  E  E  E  E  E     E  E  E  E  E  E     E  E  E  E  E  E   
-----------2--------|--------------------|-----------0--------|-----------0--------|
--------2-----2-----|-----------2--------|--------2-----2-----|--------2-----2-----|
-----3-----------3--|--------3-----3-----|-----1-----------1--|-----1-----------1--|
--------------------|-----4-----------4--|--------------------|--------------------|
--------------------|--------------------|--------------------|--4-----------------|
--2-----------------|--2-----------------|--0-----------------|--------------------|


  E  E  E  E  E  E     E  E  E  E  E  E     E  E  E  E  E  E     E  E  E  E  E  E   
-----------0--------|-----------0--------|-----------4--------|-----------4--------|
--------0-----0-----|--------0-----0-----|--------4-----4-----|--------4-----4-----|
-----1-----------1--|-----1-----------1--|-----4-----------4--|-----4-----------4--|
--------------------|--2-----------------|--------------------|--------------------|
--------------------|--------------------|--6-----------------|--------------------|
--0-----------------|--------------------|--------------------|--4-----------------|


  E  E  E  E  E  E     E  E  E  E  E  E     E  E  E  E  E  E     E  E  E  E  E  E   
--------------------|--------------------|--------------------|-----------4--------|
-----------5--------|-----------5--------|-----------4--------|--------4-----4-----|
--------6-----6-----|--------6-----6-----|--------4-----4-----|-----4-----------4--|
-----6-----------6--|-----6-----------6--|-----6-----------6--|--------------------|
--------------------|--------------------|--------------------|--------------------|
--4-----------------|--4-----------------|--4-----------------|--4-----------------|


  E  E  E  E  E  E     E  E  E  E  E  E     Q.     Q.        Q    Q    Q     
--------------------|-----------3--------|----------------|-----------------|
-----------5--------|--------4-----4-----|----------------|-----------------|
--------6-----6-----|-----3-----------3--|----------------|-----------------|
-----6-----------6--|--5-----------------|--1------1------|--1----1----1----|
--4-----------------|--------------------|----------------|-----------------|
--------------------|--------------------|--4------4------|--4----4----4----|


  Q.     Q.         Q      Q.     Q.        Q    Q    Q       Q.     Q.          Q     
----------------|-------|----------------|-----------------|----------------|---------|
----------------|-------|----------------|-----------------|----------------|---------|
----------------|-------|----------------|-----------------|----------------|---------|
--1------1------|-------|--1------1------|--1----1----1----|--1------1------|---------|
----------------|-------|----------------|-----------------|----------------|---------|
--4------4------|-------|--4------4------|--4----4----4----|--4------4------|---------|


  W                     W         W         W         W         W         W
-------------------|---------|---------|---------|---------|---------|---------||
-------------------|---------|---------|---------|---------|---------|---------||
--1----------------|---------|---------|---------|---------|---------|---------||
--1----------------|---------|---------|---------|---------|---------|---------||
-------------------|---------|---------|---------|---------|---------|---------||
-------------------|---------|---------|---------|---------|---------|---------||





3rd Guitar (Capo 4)
-------------------



       W         W         W         W         W         W         W        W       W
E||---------|---------|---------|---------|---------|---------|---------|-------|-------|
B||---------|---------|---------|---------|---------|---------|---------|-------|-------|
G||---------|---------|---------|---------|---------|---------|---------|-------|-------|
D||---------|---------|---------|---------|---------|---------|---------|-------|-------|
A||---------|---------|---------|---------|---------|---------|---------|-------|-------|
E||---------|---------|---------|---------|---------|---------|---------|-------|-------|


   W      H.           Q       Q    Q    Q    Q       H        H         
-------|--0-----------------|-------0----1----3----|--0--------5--------|
-------|---------------1----|--3-------------------|--------------------|
-------|--------------------|----------------------|--------------------|
-------|--------------------|----------------------|--------------------|
-------|--------------------|----------------------|--------------------|
-------|--------------------|----------------------|--------------------|


  Q.     E  Q.     E     E  E  Q    E  E     W                     H.       W       H.
----------------------|-------------------|-------------------|---------|-------|-------|
----------------------|-------------------|-------------------|---------|-------|-------|
----------------------|-------------------|-------------------|---------|-------|-------|
----------------------|-------------------|-------------------|---------|-------|-------|
--0---------0---------|--0--3--2----0-----|-------------------|---------|-------|-------|
---------0---------0--|----------------3--|--1----------------|---------|-------|-------|


  Q    Q    Q    Q       H        H           H.              Q.     Q.      
----------------------|-----------7--------|---------------|---------0------|
----------------------|--------------------|---------------|--1-------------|
--3---------3----2----|--2-----------------|--2------------|----------------|
-------3--------------|--------------------|---------------|----------------|
----------------------|--------------------|---------------|----------------|
----------------------|--------------------|---------------|----------------|


  H        E  E     H.              H        E  E     H        E  E     H.            
--5--------3--1--|--0------------|--5--------3--1--|--0--------------|---------------|
-----------------|---------------|-----------------|-----------3--1--|--0------------|
-----------------|---------------|-----------------|-----------------|---------------|
-----------------|---------------|-----------------|-----------------|---------------|
-----------------|---------------|-----------------|-----------------|---------------|
-----------------|---------------|-----------------|-----------------|---------------|


  H.              H.              Q.     Q.        H        E  E     H.            
---------------|---------------|---------0------|--8--------7--5--|--3------------|
---------------|---------------|--1-------------|-----------------|---------------|
--1------------|--2------------|----------------|-----------------|---------------|
---------------|---------------|----------------|-----------------|---------------|
---------------|---------------|----------------|-----------------|---------------|
---------------|---------------|----------------|-----------------|---------------|


  Q    Q    Q        H         E   E      H.              H.              Q    H         
--L----5----7----|--15--------14--12--|--14------------|--L------------|--L-------------|
-----------------|--------------------|----------------|---------------|----------------|
-----------------|--------------------|----------------|---------------|----------------|
-----------------|--------------------|----------------|---------------|----------------|
-----------------|--------------------|----------------|---------------|----------------|
-----------------|--------------------|----------------|---------------|----------------|


  Q.     Q.        H        Q       H        E  E     H.              H        Q     
----------------|----------------|--2--------0-----|--0------------|--L--------2----|
---------4------|--2-------------|--------------4--|---------------|----------------|
--1-------------|----------------|-----------------|---------------|----------------|
----------------|-----------4----|-----------------|---------------|----------------|
----------------|----------------|-----------------|---------------|----------------|
----------------|----------------|-----------------|---------------|----------------|


  H.              H.              H.              H.              H.            
--4------------|--6------------|--7------------|--L------------|---------------|
---------------|---------------|---------------|---------------|--4------------|
---------------|---------------|---------------|---------------|---------------|
---------------|---------------|---------------|---------------|---------------|
---------------|---------------|---------------|---------------|---------------|
---------------|---------------|---------------|---------------|---------------|


  H.              H.              H.              H.               H.            
--0------------|--6------------|--7------------|--9------------|--11------------|
---------------|--2------------|--4------------|--4------------|----------------|
---------------|---------------|---------------|---------------|---0------------|
---------------|---------------|---------------|---------------|----------------|
---------------|---------------|---------------|---------------|----------------|
---------------|---------------|---------------|---------------|----------------|


  H.              H.              H.              Q       H.              H.            
--4------------|--L------------|--L------------|--L----|--4------------|--L------------|
---------------|---------------|---------------|-------|---------------|---------------|
---------------|---------------|---------------|-------|---------------|---------------|
---------------|---------------|---------------|-------|---------------|---------------|
---------------|---------------|---------------|-------|---------------|---------------|
---------------|---------------|---------------|-------|---------------|---------------|


  H.              Q         W         W         W       W                 
--L------------|--L----|---------|---------|---------|-------------------|
---------------|-------|---------|---------|---------|--3----------------|
---------------|-------|---------|---------|---------|-------------------|
---------------|-------|---------|---------|---------|-------------------|
---------------|-------|---------|---------|---------|-------------------|
---------------|-------|---------|---------|---------|-------------------|


  W                     W         W      
-------------------|---------|---------||
-------------------|---------|---------||
--1----------------|---------|---------||
-------------------|---------|---------||
-------------------|---------|---------||
-------------------|---------|---------||





Bass
----



     W                   W                   W                   W                 
G||-------------------|-------------------|-------------------|-------------------|
D||-------------------|-------------------|-------------------|-------------------|
A||--4----------------|--L----------------|--L----------------|--L----------------|
E||-------------------|-------------------|-------------------|-------------------|


  Q    H.              W                   W                   W                 
--------------------|-------------------|-------------------|-------------------|
--------------------|-------------------|-------------------|-------------------|
--L----4------------|--4----------------|--L----------------|--4----------------|
--------------------|-------------------|-------------------|-------------------|


  W                   W                   W                   W                 
-------------------|-------------------|-------------------|-------------------|
-------------------|-------------------|-------------------|-------------------|
--4----------------|--L----------------|--4----------------|--L----------------|
-------------------|-------------------|-------------------|-------------------|


  W                   W                   H.              H.           Q     
-------------------|-------------------|---------------|--------------------|
-------------------|-------------------|---------------|--------------------|
--L----------------|--4----------------|--L------------|--0-----------------|
-------------------|-------------------|---------------|---------------4----|


  H.              H        H           H        Q       W                 
---------------|--------------------|----------------|-------------------|
---------------|--------------------|----------------|-------------------|
---------------|--2--------0--------|--0-------------|-------------------|
--2------------|--------------------|-----------4----|--2----------------|


                  |-3-|                                                        
  H        Q.     S S S    Q.     E  Q       Q.     E  Q       Q.     E  Q     
------------------------|-----------------|-----------------|-----------------|
--1---------------------|-----------------|-----------------|-----------------|
------------------------|--4------4--4----|--4------4--4----|--0------0--0----|
-----------4------4-4-4-|-----------------|-----------------|-----------------|


  Q.     E  Q       Q.     E  Q       Q.     E  Q       Q.     E  Q     
-----------------|-----------------|-----------------|-----------------|
-----------------|-----------------|-----------------|-----------------|
--4------4--4----|--0------0--0----|--4------4--4----|-----------------|
-----------------|-----------------|-----------------|--4------4--4----|


  Q    E  E  E  E     Q.     E  Q       Q.     E  Q       Q.     E  Q     
-------------------|-----------------|-----------------|-----------------|
-------------------|-----------------|-----------------|--2------2--2----|
-------------------|--4------4--4----|--4------4--4----|-----------------|
--4----4--4--4--4--|-----------------|-----------------|-----------------|


  Q    E  E  E  E     Q.     E  Q       Q.     E  Q       Q.     E  Q     
--4----4--4--4--4--|--1------1--1----|--1------1--1----|-----------------|
-------------------|-----------------|-----------------|--1------1--1----|
-------------------|-----------------|-----------------|-----------------|
-------------------|-----------------|-----------------|-----------------|


  H        Q       Q.     E  Q       Q.     E  E  E     Q.     E  Q       Q.     E  Q     
----------------|-----------------|------------------|--3------3--3----|--3------3--3----|
--1--------1----|-----------------|------------------|-----------------|-----------------|
----------------|--3------3--3----|--3------3--3--3--|-----------------|-----------------|
----------------|-----------------|------------------|-----------------|-----------------|


  Q.     E  Q       Q.     E  Q       Q.     E  Q       Q.     E  Q       Q.     E  Q     
-----------------|-----------------|--1------1--1----|--1------1--1----|--0------0--0----|
--3------3--3----|--3------3--3----|-----------------|-----------------|-----------------|
-----------------|-----------------|-----------------|-----------------|-----------------|
-----------------|-----------------|-----------------|-----------------|-----------------|


  Q.     E  Q       Q.     E  Q       Q.     E  Q       Q.     E  Q       Q.     E  Q     
--0------0--0----|-----------------|-----------------|-----------------|-----------------|
-----------------|--3------3--3----|--3------3--3----|--1------1--1----|--1------1--1----|
-----------------|-----------------|-----------------|-----------------|-----------------|
-----------------|-----------------|-----------------|-----------------|-----------------|


  Q.     E  Q       Q.     E  Q       H.              H.              H.            
-----------------|--0------0--0----|---------------|---------------|---------------|
--0------0--0----|-----------------|---------------|---------------|---------------|
-----------------|-----------------|--3------------|---------------|---------------|
-----------------|-----------------|---------------|---------------|---------------|


  Q       H.              H.    H.    E  E     W                   W                 
-------|---------------|-----|-----|--------|-------------------|-------------------|
-------|---------------|-----|-----|--------|-------------------|-------------------|
--3----|--3------------|-----|-----|--3--3--|--3----------------|--L----------------|
-------|---------------|-----|-----|--------|-------------------|-------------------|


  W                   W                   W                   W                 
-------------------|-------------------|-------------------|-------------------|
-------------------|-------------------|-------------------|-------------------|
--L----------------|--L----------------|--3----------------|--L----------------|
-------------------|-------------------|-------------------|-------------------|

  W
---------------||
---------------||
---------------||
---------------||




Legend:
-------
W - whole
H - half
Q - quarter
E - 8th
S - 16th
. - note dotted
|-n-|  - n-tuplets
L - tied note
Login or Register to remove this ad.

1 comment on A Call to Arms

Awesome tab, I could never

Awesome tab, I could never tab an orchestral piece.