Ads

Arthas' Theme (World of Warcraft) Guitar Tab

Submitted: Jun 17, 2010 by Giogiogio4 (Last updated: Nov 01, 2013)

5
Average: 5 (6 votes)
Download | Listen
Game: World of Warcraft
Composer(s): David Arkenstone, Derek Duke, Jason Hayes
Style: Arrangement, Fingerstyle

AutoScroll: Slow | Medium | Fast
                       Arthas Theme - World of Warcraft                         


Guitar Tab (Capo 2)


Click here for MP3 backing tracks without guitar.
Please click the listen link for the whole thing, including guitar.




             E  E  E  E  E  E  E  E     E  E  E  E  E  E  E  E   
E||-------|-----------------0--------|--------------------------|
B||-------|--------------0-----0-----|-----------3--------------|
G||-------|-----------0-----------0--|--------4-----4-----------|
D||-------|--------2-----------------|-----4-----------4-----4--|
A||-------|-----2--------------------|--2-----------------2-----|
E||-------|--0-----------------------|--------------------------|


  E  E  E  E  E  E  E  E     E  E  E  E  E  E  E  E   
-----------------0--------|--------------------------|
--------------0-----0-----|-----------3--------------|
-----------0-----------0--|--------4-----4-----------|
--------2-----------------|-----4-----------4-----4--|
-----2--------------------|--2-----------------2-----|
--0-----------------------|--------------------------|


  E  E  E  E  E  E  E  E     E  E  E  E  E  E  E  E   
--------------0-----------|-----------------0--------|
-----------1-----1--------|--------------0-----0-----|
--------2-----------2-----|-----------0-----------0--|
-----2-----------------2--|--------2-----------------|
--0-----------------------|-----2--------------------|
--------------------------|--0-----------------------|


                                                      ^                  
  E  E  E  E  E  E  E  E     E  E  E  E  Q    Q       H.           Q     
-----------0-----------2--|-------------------0----|--0-----------------|
--------1-----------3-----|--------------0---------|--0-----------------|
-----0-----------2--------|-----------0------------|--0------------0----|
--2-----------0-----------|--------2---------------|--2-----------------|
--------------------------|-----2------------------|--2-----------------|
--------------------------|--0---------------------|--0-----------------|


                       ^                                           
  H        H           Q    Q    Q    Q       Q    Q    Q    Q     
--------------------|----------------------|----------------------|
--------------------|----------------------|----------------------|
--2--------0--------|----------------------|----------------------|
--------------------|--4----2----0----L----|----------------------|
--------------------|--2---------L----2----|--0-------------------|
--------------------|----------------------|-------3----2----L----|


  ^                                         ^                   
  H.           Q       H        H           H        Q    Q     
--0-----------------|--------------------|---------------------|
--0-----------------|--------------------|---------------------|
--0------------0----|--2--------0--------|---------------------|
--2-----------------|--------------------|--4-------------4----|
--2-----------------|--------------------|--2--------2---------|
--0-----------------|--------------------|---------------------|


                         ^                                       
  Q    Q    Q    Q       H.           Q       H        H         
----------------------|--0-----------------|--------------------|
-------3----L---------|--1------------1----|--3--------1--------|
--4-------------------|--2-----------------|--------------------|
----------------------|--2-----------------|--------------------|
----------------------|--0-----------------|--------------------|
----------------------|--------------------|--------------------|


            ^                                        ^         
  Q    Q    H           W                   H        H         
------------0--------|--L----------------|-----------0--------|
------------0--------|--L----------------|--1--------1--------|
--4----2----0--------|--L----------------|-----------0--------|
------------2--------|--L----------------|-----------2--------|
------------2--------|--L----------------|-----------0--------|
------------0--------|--L----------------|--------------------|


       ^                        ^                                     
  Q    H.              H        H           W                         
--L----2------------|--L--------0--------|--L----------------|-------|
--L----3------------|--L--------0--------|--L----------------|-------|
--L----2------------|--L--------0--------|--L----------------|-------|
--L----0------------|--L--------2--------|--L----------------|-------|
--L----0------------|--L--------2--------|--L----------------|-------|
--------------------|-----------0--------|--L----------------|-------|


  ^                                                              
  H.           Q       H        H           Q    Q    Q    Q     
--0-----------------|--------------------|----------------------|
--0-----------------|--------------------|----------------------|
--0------------0----|--2--------0--------|----------------------|
--2-----------------|--------------------|--4----2----0----L----|
--2-----------------|--------------------|--2---------L----2----|
--0-----------------|--------------------|----------------------|


                         ^                                       
  Q    Q    Q    Q       H.           Q       H        H         
----------------------|--0-----------------|--------------------|
----------------------|--0-----------------|--------------------|
----------------------|--0------------0----|--2--------0--------|
----------------------|--2-----------------|--------------------|
--0-------------------|--2-----------------|--------------------|
-------3----2----L----|--0-----------------|--------------------|


                                               ^                  
  H        Q    Q       Q    Q    Q    Q       H.           Q     
---------------------|----------------------|--0-----------------|
---------------------|-------3----L---------|--1------------1----|
---------------------|--4-------------------|--2-----------------|
--4-------------4----|----------------------|--2-----------------|
--2--------2---------|----------------------|--0-----------------|
---------------------|----------------------|--------------------|


                                 ^                             
  H        H           Q    Q    H           W                 
--------------------|------------0--------|--L----------------|
--3--------1--------|------------0--------|--L----------------|
--------------------|--4----2----0--------|--L----------------|
--------------------|------------2--------|--L----------------|
--------------------|------------2--------|--L----------------|
--------------------|------------0--------|--L----------------|


  H        E  E  E  E     Q    E  E  E  Q.        H        E  E  E  E         
--------------------0--|--L-------------2------|--L--------------------|-----|
--1--------------1-----|-------------3---------|-----------------------|-----|
--------------0--------|----------2------------|--------------------0--|-----|
-----------2-----------|-------0---------------|-----------------2-----|-----|
-----------------------|-----------------------|--------------2--------|-----|
-----------------------|-----------------------|-----------0-----------|-----|


  E  E  E  E  E  E  E  E     E  E  E  E  E  E  E  E   
-----------------0--------|--------------------------|
--------------0-----0-----|-----------3--------------|
-----------0-----------0--|--------4-----4-----------|
--------2-----------------|-----4-----------4-----4--|
-----2--------------------|--2-----------------2-----|
--0-----------------------|--------------------------|


  E  E  E  E  E  E  E  E     E  E  E  E  E  E  E  E   
-----------------0--------|--------------------------|
--------------0-----0-----|-----------3--------------|
-----------0-----------0--|--------4-----4-----------|
--------2-----------------|-----4-----------4-----4--|
-----2--------------------|--2-----------------2-----|
--0-----------------------|--------------------------|


  E  E  E  E  E  E  E  E     E  E  E  E  E  E  E  E   
--------------0-----------|-----------------0--------|
-----------1-----1--------|--------------0-----0-----|
--------2-----------2-----|-----------0-----------0--|
-----2-----------------2--|--------2-----------------|
--0-----------------------|-----2--------------------|
--------------------------|--0-----------------------|


                                                      ^                  
  E  E  E  E  E  E  E  E     E  E  E  E  Q    Q       H.           Q     
-----------0-----------2--|-------------------0----|--0-----------------|
--------1-----------3-----|--------------0---------|--0-----------------|
-----0-----------2--------|-----------0------------|--0------------0----|
--2-----------0-----------|--------2---------------|--2-----------------|
--------------------------|-----2------------------|--2-----------------|
--------------------------|--0---------------------|--0-----------------|


  H        H           Q    Q    Q    Q       Q    Q    Q    Q     
--------------------|----------------------|----------------------|
--------------------|----------------------|----------------------|
--2--------0--------|----------------------|----------------------|
--------------------|--4----2----0----L----|----------------------|
--------------------|--2---------L----2----|--0-------------------|
--------------------|----------------------|-------3----2----L----|


  ^                                                             
  H.           Q       H        H           H        Q    Q     
--0-----------------|--------------------|---------------------|
--0-----------------|--------------------|---------------------|
--0------------0----|--2--------0--------|---------------------|
--2-----------------|--------------------|--4-------------4----|
--2-----------------|--------------------|--2--------2---------|
--0-----------------|--------------------|---------------------|


                         ^                                       
  Q    Q    Q    Q       H.           Q       H        H         
----------------------|--0-----------------|--------------------|
-------3----L---------|--1------------1----|--3--------1--------|
--4-------------------|--2-----------------|--------------------|
----------------------|--2-----------------|--------------------|
----------------------|--0-----------------|--------------------|
----------------------|--------------------|--------------------|


            ^                                        ^         
  Q    Q    H           W                   H        H         
------------0--------|--L----------------|-----------0--------|
------------0--------|--L----------------|--1--------1--------|
--4----2----0--------|--L----------------|-----------0--------|
------------2--------|--L----------------|-----------2--------|
------------2--------|--L----------------|-----------0--------|
------------0--------|--L----------------|--------------------|


       ^                        ^                             
  Q    H.              H        H           W                 
--L----2------------|--L--------0--------|--L----------------|
--L----3------------|--L--------0--------|--L----------------|
--L----2------------|--L--------0--------|--L----------------|
--L----0------------|--L--------2--------|--L----------------|
--L----0------------|--L--------2--------|--L----------------|
--------------------|-----------0--------|--L----------------|


-------------------||
-------------------||
-------------------||
-------------------||
-------------------||
-------------------||




Duration Legend
---------------
W - whole
H - half
Q - quarter
E - 8th
S - 16th
T - 32nd
X - 64th
. - note dotted
|-n-|  - n-tuplets


Tablature Legend
----------------
L - tied note
x - dead note
g - grace note
(n) - ghost note
> - accentuded note
NH - natural harmonic
AH - artificial harmonic
TH - tapped harmonic
SH - semi harmonic
PH - pitch harmonic
h - hammer on
p - pull off
b - bend
br - bendRelease
pb - preBend
pbr - preBendRelease
brb - bendReleaseBend
\n/ - tremolo bar dip
\n - tremolo bar dive
-/n - tremolo bar Release up
/n\ - tremolo bar inverted dip
/n - tremolo bar return
-\n - tremolo bar Release down
S - shift slide
s - legato slide
/ -  slide into from below or out of upwards
\ -  slide into from above or out of downwards
~ - vibrato
W - wide vibrato
tr - trill
TP - tremolo picking
T - tapping
S - slap
P - pop
< - fade in
^ - brush up
v - brush down
Login or Register to remove this ad.