Ads

Screamer (World of Goo) Guitar Tab

Submitted: Feb 20, 2016 by johnbie (Last updated: Feb 25, 2016)

5
Average: 5 (1 vote)
Download | Listen
Game: World of Goo
Composer(s): Kyle Gabler
Style: Arrangement, Fingerstyle

AutoScroll: Slow | Medium | Fast
Screamer                                          
Song  By Kyle Gabler
Arranged By John Lee
Capo 2



     H        E  E  E  E     E  E  E  E  E  E  E  E     E  E  E  E  E  E  E  E   
E||--2--------------------|--------------------------|--7-----------------------|
B||--2--------------------|--------------------------|--7-----------------------|
G||--2--------------------|--------------------------|--7-----------------------|
D||--4--------------------|--------4--4--7--7--7--7--|--9-----------------------|
A||--4--------------------|--4--4--------------------|--9-----------------------|
E||--2--------2--2--5--5--|--------------------------|--7--7--7--7--7--7--7--7--|


    E  E  E  E  E  E  E  E     E  E  E  E  E  E  E  E     E  E  E  E  E  E  E  E   
|---------------------------|--------------------------|--7-----------------------|
|---------------7-----------|--8-----------------------|--------------8-----------|
|*--9-----------------------|--9-----------------------|--------------------------|
|*--------------------------|--9-----------------------|--------------------------|
|---------------------------|--7--7--7--7--7--7--7--7--|--7--7--7--7--7--7--7-----|
|---7--7--7--7--7--7--7--7--|--------------------------|-----------------------0--|


  E  E  E  E  E  E  E  E     E  E  E  E   E  E  E  E     E  E  E  E  E  E  E  E   
--------------------------|--7------------------------|--------------------------|
--7-----------------------|--------------10-----------|--8-----------------------|
--7-----------------------|---------------------------|--9-----------------------|
--9-----------------------|---------------------------|--9-----------------------|
--------------------------|---------------------------|--7--7--7--7--7--7--7--7--|
--7--7--7--7--7--7--7--7--|--7--7--7--7---7--7--7--7--|--------------------------|


   E  E  E  E  E  E  E  E     E  E  E  E  E  E  E  E     E  E  E  E  E  E  E  E   
---------------------------|--------------------------|--------------------------|
--10-----------8-----------|--7-----------------------|--L-----------7-----------|
---------------------------|--------------------------|--------------------------|
---------------------------|--------------------------|--------------------------|
---7--7--7--7--7--7--7-----|--------------------------|--------------------------|
------------------------0--|--7--7--7--7--7--7--7--7--|--7--7--7--7--7--7--7--7--|


  E  E  E  E  E  E  E  E     E  E  E  E  E  E  E  E      E  E  E  E  E  E  E  E   
--7-----------------------|--L-----------------------|--10-----------9-----------|
--8-----------------------|--------------8-----------|---7-----------------------|
--------------------------|--------------------------|---------------------------|
--------------------------|--------------------------|---------------------------|
--7--7--7--7--7--7--7--7--|--7--7--7--7--7--7--7-----|---------------------------|
--------------------------|-----------------------0--|---7--7--7--7--7--7--7--7--|


  E  E  E  E   E  E  E  E     E  E  E  E  E  E  E  E     E  E  E  E  E  E  E  E   
--7------------------------|--------------------------|--------------------------|
--------------10-----------|--8-----------------------|--L-----------8-----------|
---------------------------|--9-----------------------|--------------------------|
---------------------------|--9-----------------------|--------------------------|
---------------------------|--7--7--7--7--7--7--7--7--|--7--7--7--7--7--7--7-----|
--7--7--7--7---7--7--7--7--|--------------------------|-----------------------0--|


  E  E  E  E  E  E  E  E     E  E  E  E  E  E  E  E     
--------------------------|---------------------------||
--7-----------------------|--L------------------------||
--7-----------------------|--------------------------*||
--9-----------------------|--------------------------*||
--------------------------|---------------------------||
--7--7--7--7--7--7--7--7--|--7--7--7--7--7--7--7--7---||




Duration Legend
---------------
W - whole
H - half
Q - quarter
E - 8th
. - note dotted
Login or Register to remove this ad.