Ads

Hajimete Koi wo Shita Kioku ~Piano Bansou~ (The World God Only Knows) Guitar Tab

Submitted: Sep 26, 2013 by Basisti94

5
Average: 5 (2 votes)
Download | Listen
Game: The World God Only Knows
Composer(s): Hayato Matsuo
Style: 2 or more instruments, Arrangement, Fingerstyle

This song is also called The Memory of My First Love

AutoScroll: Slow | Medium | Fast
                Hajimete Koi Wo Shita Kioku ~Piano Version~
                                
The World God Only Knows
Matsuo Hayato
Guitar arrangement by Basisti94 (Miro Laaksonen)
25.9.2013


----------
Hajimete Koi Wo Shita Kioku (piano version) from The World God Only Knows
Soundtrack arranged for guitar.

I have included two versions of the tab here. 
Solo arrangement with vocal melody and piano part together, 
and version with piano and vocal melody tabbed for guitar separately, 
in case you prefer to hum the vocal part yourself 
or play it with harmonica or something.
----------


Solo arrangement:

 Capo 2
 Tempo ~ 90
     E  E  E  Q    Q    E     E  Q    Q    Q.        E  E  E  Q    Q    E   
E||------------------------|----------------------|------------------------|
B||--1--1--1--0----1----3--|--L--1----0----1------|--1--1--1--0----1----3--|
G||------------------------|----------------------|------------------------|
D||------------------------|----------------------|------------------------|
A||------------------------|----------------------|------------------------|
E||------------------------|----------------------|------------------------|


  E  Q    Q    Q.        E  E  E  Q    Q    E     E  Q    Q    Q.      
---------------0------|------------------------|----------------------|
--L--1----3-----------|--1--1--1--0----1----3--|--L--1----0----1------|
----------------------|------------------------|----------------------|
----------------------|------------------------|----------------------|
----------------------|------------------------|----------------------|
----------------------|------------------------|----------------------|


  Q.     Q.     Q       W                   E  E  E  E  H         
---------1------0----|--L----------------|-----------------------|
--1------------------|-------------------|-----------5--L--------|
---------------------|-------------------|--------5--------------|
---------------------|-------------------|-----5-----------------|
--3------------------|-------------------|--3--------------------|
--1------------------|--L----------------|-----------------------|


                                                  ^        ^          
  E  E  E  E  H           E  E  E  E  H           H        Q    Q     
-----------------------|-----------------------|---------------------|
--3--------3--L--------|--1--------1--L--------|--0--------0----3----|
--------4--------------|--------2--------------|--0--------1---------|
-----5-----------------|-----3-----------------|--0--------0---------|
-----------------------|-----------------------|---------------------|
--3--------------------|--1--------------------|--3--------4---------|


  ^                   ^                     ^                    
  W                   H        Q    Q       H        E  E  Q     
-------------------|---------------------|----------------------|
--1----------------|--1--------0----1----|--1--------------1----|
--2----------------|--0------------------|--0-----------0-------|
--2----------------|--2------------------|--3--------3----------|
--0----------------|---------------------|--3-------------------|
-------------------|--3------------------|--1-------------------|


  ^        ^            ^                       ^                     
  H        Q    Q       E  E  E  E  H           E  E  E  E  H         
---------------------|--------------0--------|-----------------------|
--1--------0----3----|--1-----1--3-----------|--0--------0--3--------|
--0--------0---------|--0--0-----------------|--0-----0--------------|
--3--------0---------|--2--------------------|--0--0-----------------|
---------------------|--3--------------------|-----------------------|
--3--------3---------|-----------------------|--3--------------------|


  ^                       ^          ^             ^                     
  E  E  E  E  H           E  E  Q    E  E  Q       E  E  E  E  H         
-----------------------|------------------------|-----------------------|
--------------1--------|--0----------0-----0----|--1--------0--1--------|
--0--------0-----------|--0-----0----1-----1----|--2-----2--------------|
--3-----3--------------|-----0----------2-------|--2--2-----------------|
--3--3-----------------|------------------------|--0--------------------|
--1--------------------|--3----------4----------|-----------------------|


  ^                                              ^                     
  E  E  E  E  H           E  E  Q    H           E  E  E  E  H         
-----------------------|----------------------|-----------1--0--------|
--1--------0--1--------|--1----------0--------|--1-----1--------------|
--0-----0--------------|--0----------0--------|--0--0-----------------|
--2--2-----------------|--------3-------------|--2--------------------|
-----------------------|-----3----------------|--3--------------------|
--3--------------------|--1----------3--------|-----------------------|


  E  E  E  E  E  E  E  E     E  E  E  E  E  E  E  E   
--------------------------|--------------------------|
--------------1-----------|--------------0-----------|
--------2-----------2-----|--------1-----------1-----|
-----2-----2-----2-----2--|-----2-----2-----2-----2--|
--0-----------------------|--------------------------|
--------------------------|--4-----------------------|


  E  E  E  E  E  E  E  E     E  E  E  E  H           E  E  E  E  H         
--------------------------|-----------------------|-----------------------|
--------------1-----------|--------------3--------|--------------1--------|
--------2-----------2-----|-----------2-----------|-----------2-----------|
-----2-----2-----2-----2--|--------4--------------|--------3--------------|
--------------------------|-----5-----------------|-----3-----------------|
--3-----------------------|--2--------------------|--1--------------------|


  E  E  E  E  H           E  E  E  E  E  E  E  E     Q.     E  E  E  Q     
-----------------------|--------------------------|-----------------------|
--------------3--------|--1-----------1-----------|--0------1--0----------|
-----------2-----------|--------0-----------0-----|---------------0-------|
--------4--------------|-----0-----0-----0-----0--|------------------0----|
-----5-----------------|--------------------------|-----------------------|
--2--------------------|--3-----------------------|--3--------------------|


  ^                       ^                       ^                     
  E  E  E  E  H           E  E  E  E  H           E  E  E  E  H         
-----------------------|-----------------------|-----------------------|
--1-----------1--------|--0--------0--3--------|--0-----------0--------|
--0--------0-----------|--0-----0--------------|--0--------0-----------|
--3-----3--------------|--0--0-----------------|--2-----2--------------|
--3--3-----------------|-----------------------|-----2-----------------|
--1--------------------|--3--------------------|--0--------------------|


  ^                                                                           
  E  E  E  E  H           E  E  E  E  E  E  E  E     E  E  E  E  E  E  E  E   
-----------------------|--------------------------|--------------------------|
--1--------0--1--------|--------------------------|--0-----0-----0-----0-----|
--2-----2--------------|--2-----2-----2-----2-----|--1-----1-----1-----1-----|
--2--2-----------------|--3-----3-----3-----3-----|-----2-----2-----2-----2--|
--0--------------------|-----5-----5-----5-----5--|--------------------------|
-----------------------|--------------------------|--0-----------------------|


  ^                                             ^                       
  H        E  E  Q       Q    Q    Q    Q       E  E  E  E  E  Q    E   
----------------------|----------------------|--3-------------------3--|
--1--------------1----|----------------------|--1--1-----1--0--1-------|
--2-----------2-------|--3----2----2----0----|--0--------0-------------|
--2--------2----------|--0-------------------|--3-----3----------------|
--0-------------------|------------3---------|-------------------------|
----------------------|--3---------3---------|--1----------------------|


  ^                        ^                                               
  E  E  E  E  Q.     E     E  E  E  E  E  Q    E     E  E  E  E  H         
-----5--3------------0--|--3--------0-----3----0--|--L--------------------|
--0--------0--3---------|--3-----------0----------|--1--------0--1--------|
--0-----0---------------|--0--------0-------------|--------2--------------|
--0--0------------------|--0-----0----------------|-----2-----------------|
------------------------|-----2-------------------|--0--------------------|
--3---------------------|--0----------------------|-----------------------|


  E  E  E  E  E  E  E  E     E  E  E  E  E  E  E  E     E  E  E  E  H         
--------------------------|--------------0-----------|-----------------------|
--------------0-----1-----|--3-----------------0--1--|--1--------0--1--------|
--------2-----------------|--1-----1-----------------|--2-----2--------------|
--3-----3-----3-----3-----|-----2-----2-----2-----2--|-----2-----------------|
-----5-----5-----5-----5--|--------------------------|--0--------------------|
--------------------------|--0-----------------------|-----------------------|


                         ^                         ^                      
  Q    Q    Q    Q       E  E  E  E  E  Q    E     E  E  E  E  Q.     E   
----------------------|--3-------------------3--|-----5--3------------0--|
----------------------|--1--1-----1--0--1-------|--0--------0--3---------|
--3----2----2----0----|--0--------0-------------|--0-----0---------------|
--0-------------------|--3-----3----------------|--0--0------------------|
------------3---------|-------------------------|------------------------|
--3---------3---------|--1----------------------|--3---------------------|


  ^                         ^        ^                                     
  E  E  E  E  E  Q    E     H        Q    E  E     E  E  E  E  E  Q    E   
--3--------0-----3----0--|----------------------|----------------------3--|
--3-----------0----------|--1--------1-------0--|--1--0-----3-------------|
--0--------0-------------|--2--------0----2-----|--------2--------0-------|
--0-----0----------------|--2--------2----------|--3-----0----------------|
-----2-------------------|--0-------------------|-----3--------2----------|
--0----------------------|-----------3----------|--------------0----------|


  E  Q    E  E  Q    E     E  E  E  E  Q    E  E     E  E  E  E  E  Q    E   
------------------------|-------------------------|----------------------3--|
-----1----1----------1--|--L-----------1-------0--|--1--0-----3-------------|
--0-------------2-------|-----------0-------2-----|--------2--------0-------|
-------------0----------|--------3----------------|--3-----0----------------|
--3---------------------|-----3-------------------|-----3--------2----------|
--1----------3----------|--1----------------------|--------------0----------|


                                                    ^                        
  E  Q    E  E  Q    E     E  E  E  E  H            W                        
------------------------|-----------------------|---8----------------|-----||
-----1----1-----0----1--|--L-----------1--------|---8----------------|-----||
--0----------0----------|-----------0-----------|--10----------------|-----||
-------------0----------|--------3--------------|--------------------|-----||
--3---------------------|-----3-----------------|--------------------|-----||
--1----------3----------|--1--------------------|--------------------|-----||


----------------------------------------
----------------------------------------

Version with piano and vocal melody separated:

 Capo 2
 Tempo ~ 90

     E  E  E  Q    Q    E     E  Q    Q    Q.        E  E  E  Q    Q    E   
E||------------------------|----------------------|------------------------|
B||--1--1--1--0----1----3--|--L--1----0----1------|--1--1--1--0----1----3--|
G||------------------------|----------------------|------------------------|
D||------------------------|----------------------|------------------------|
A||------------------------|----------------------|------------------------|
E||------------------------|----------------------|------------------------|


  E  Q    Q    Q.        E  E  E  Q    Q    E     E  Q    Q    Q.      
---------------0------|------------------------|----------------------|
--L--1----3-----------|--1--1--1--0----1----3--|--L--1----0----1------|
----------------------|------------------------|----------------------|
----------------------|------------------------|----------------------|
----------------------|------------------------|----------------------|
----------------------|------------------------|----------------------|


  Q.     Q.     Q       W                   E  E  E  E  H         
---------1------0----|--L----------------|-----------------------|
--1------------------|-------------------|-----------5--L--------|
---------------------|-------------------|--------5--------------|
---------------------|-------------------|-----5-----------------|
--3------------------|-------------------|--3--------------------|
--1------------------|--L----------------|-----------------------|


                                                  ^        ^          
  E  E  E  E  H           E  E  E  E  H           H        Q    Q     
-----------------------|-----------------------|---------------------|
--3--------3--L--------|--1--------1--L--------|--0--------0----3----|
--------4--------------|--------2--------------|--0--------1---------|
-----5-----------------|-----3-----------------|--0--------0---------|
-----------------------|-----------------------|---------------------|
--3--------------------|--1--------------------|--3--------4---------|


  ^                   ^                     ^                    
  W                   H        Q    Q       H        E  E  Q     
-------------------|---------------------|----------------------|
--1----------------|--1--------0----1----|--1--------------1----|
--2----------------|--0------------------|--0-----------0-------|
--2----------------|--2------------------|--3--------3----------|
--0----------------|---------------------|--3-------------------|
-------------------|--3------------------|--1-------------------|


  ^        ^            ^                       ^                     
  H        Q    Q       E  E  E  E  H           E  E  E  E  H         
---------------------|--------------0--------|-----------------------|
--1--------0----3----|--1-----1--3-----------|--0--------0--3--------|
--0--------0---------|--0--0-----------------|--0-----0--------------|
--3--------0---------|--2--------------------|--0--0-----------------|
---------------------|--3--------------------|-----------------------|
--3--------3---------|-----------------------|--3--------------------|


  ^                       ^          ^             ^                     
  E  E  E  E  H           E  E  Q    E  E  Q       E  E  E  E  H         
-----------------------|------------------------|-----------------------|
--------------1--------|--0----------0-----0----|--1--------0--1--------|
--0--------0-----------|--0-----0----1-----1----|--2-----2--------------|
--3-----3--------------|-----0----------2-------|--2--2-----------------|
--3--3-----------------|------------------------|--0--------------------|
--1--------------------|--3----------4----------|-----------------------|


  ^                                              ^                     
  E  E  E  E  H           E  E  Q    H           E  E  E  E  H         
-----------------------|----------------------|-----------1--0--------|
--1--------0--1--------|--1----------0--------|--1-----1--------------|
--0-----0--------------|--0----------0--------|--0--0-----------------|
--2--2-----------------|--------3-------------|--2--------------------|
-----------------------|-----3----------------|--3--------------------|
--3--------------------|--1----------3--------|-----------------------|


  E  E  E  E  E  E  E  E     E  E  E  E  E  E  E  E   
--------------------------|--------------------------|
--------------1-----------|--------------0-----------|
--------2-----------2-----|--------1-----------1-----|
-----2-----2-----2-----2--|-----2-----2-----2-----2--|
--0-----------------------|--------------------------|
--------------------------|--4-----------------------|


  E  E  E  E  E  E  E  E     E  E  E  E  H           E  E  E  E  H         
--------------------------|-----------------------|-----------------------|
--------------1-----------|--------------3--------|--------------1--------|
--------2-----------2-----|-----------2-----------|-----------2-----------|
-----2-----2-----2-----2--|--------4--------------|--------3--------------|
--------------------------|-----5-----------------|-----3-----------------|
--3-----------------------|--2--------------------|--1--------------------|


  E  E  E  E  H           E  E  E  E  E  E  E  E     Q.     E  E  E  Q     
-----------------------|--------------------------|-----------------------|
--------------3--------|--1-----------1-----------|--0------1--0----------|
-----------2-----------|--------0-----------0-----|---------------0-------|
--------4--------------|-----0-----0-----0-----0--|------------------0----|
-----5-----------------|--------------------------|-----------------------|
--2--------------------|--3-----------------------|--3--------------------|


  ^                       ^                       ^                     
  E  E  E  E  H           E  E  E  E  H           E  E  E  E  H         
-----------------------|-----------------------|-----------------------|
--1-----------1--------|--0--------0--3--------|--0-----------0--------|
--0--------0-----------|--0-----0--------------|--0--------0-----------|
--3-----3--------------|--0--0-----------------|--2-----2--------------|
--3--3-----------------|-----------------------|-----2-----------------|
--1--------------------|--3--------------------|--0--------------------|


  ^                                                                           
  E  E  E  E  H           E  E  E  E  E  E  E  E     E  E  E  E  E  E  E  E   
-----------------------|--------------------------|--------------------------|
--1--------0--1--------|--------------------------|--0-----0-----0-----0-----|
--2-----2--------------|--2-----2-----2-----2-----|--1-----1-----1-----1-----|
--2--2-----------------|--3-----3-----3-----3-----|-----2-----2-----2-----2--|
--0--------------------|-----5-----5-----5-----5--|--------------------------|
-----------------------|--------------------------|--0-----------------------|

					    Humming starts here if you want
                                            to hum along with Chihiro		
  ^                                             ^                     
  H        E  E  Q       Q    Q    Q    Q       E  E  E  E  H         
----------------------|----------------------|-----------------------|
--1--------------1----|----------------------|--1-----------1--------|
--2-----------2-------|--3----2----2----0----|--0--------0-----------|
--2--------2----------|--0-------------------|--3-----3--------------|
--0-------------------|------------3---------|--3--3-----------------|
----------------------|--3---------3---------|--1--------------------|


  ^                       ^                                             
  E  E  E  E  H           E  E  E  E  H           E  E  E  E  H         
-----------------------|-----------------------|-----------------------|
--0--------0--3--------|--3--------------------|--1--------0--1--------|
--0-----0--------------|--0--------0--4--------|--------2--------------|
--0--0-----------------|--0-----0--------------|-----2-----------------|
-----------------------|-----2-----------------|--0--------------------|
--3--------------------|--0--------------------|-----------------------|


  E  E  E  E  E  E  E  E     E  E  E  E  E  E  E  E     E  E  E  E  H         
--------------------------|--------------------------|-----------------------|
--------------------------|--0-----0-----0-----0-----|--1--------0--1--------|
--2-----2-----2-----2-----|--1-----1-----1-----1-----|--2-----2--------------|
--3-----3-----3-----3-----|-----2-----2-----2-----2--|-----2-----------------|
-----5-----5-----5-----5--|--------------------------|--0--------------------|
--------------------------|--0-----------------------|-----------------------|


                         ^                       ^                     
  Q    Q    Q    Q       E  E  E  E  H           E  E  E  E  H         
----------------------|-----------------------|-----------------------|
----------------------|--1-----------1--------|--0--------0--3--------|
--3----2----2----0----|--0--------0-----------|--0-----0--------------|
--0-------------------|--3-----3--------------|--0--0-----------------|
------------3---------|--3--3-----------------|-----------------------|
--3---------3---------|--1--------------------|--3--------------------|


  ^                       ^        ^                                
  E  E  E  E  H           H        H           E  E  Q    H         
-----------------------|--------------------|----------------------|
--3--------------------|--1--------1--------|----------------------|
--0--------0--4--------|--2--------0--------|-------------0--------|
--0-----0--------------|--2--------2--------|--3-----0-------------|
-----2-----------------|--0-----------------|-----3-------2--------|
--0--------------------|-----------3--------|-------------0--------|


  H        H           E  E  E  E  H           E  E  Q    H         
--------------------|-----------------------|----------------------|
--------------------|--1-----------1--------|----------------------|
--0--------0--------|-----------0-----------|-------------0--------|
-----------0--------|--------3--------------|--3-----0-------------|
--3-----------------|-----3-----------------|-----3-------2--------|
--1--------3--------|--1--------------------|-------------0--------|


                                                ^                        
  H        H           E  E  E  E  H            W                        
--------------------|-----------------------|---8----------------|-----||
--------------------|--1-----------1--------|---8----------------|-----||
--0--------0--------|-----------0-----------|--10----------------|-----||
-----------0--------|--------3--------------|--------------------|-----||
--3-----------------|-----3-----------------|--------------------|-----||
--1--------3--------|--1--------------------|--------------------|-----||



---------------

Chihiro's humming part near the end of the track.


(No capo)

(Starts at bar 41)
   E  Q    E  E  Q    E     E  E  Q    Q.     E     Q.     Q    Q    E   
|--5------------------5--|--L--7--5--------------|--5-----------5-------|
|-----3----3--2--3-------|--------------------7--|---------7------------|
|------------------------|-----------------------|-------------------7--|
|------------------------|-----------------------|----------------------|
|------------------------|-----------------------|----------------------|
|------------------------|-----------------------|----------------------|


  Q    H.              Q    Q    Q    Q       Q    Q    Q    E  E   
--------------------|----------------------|-----------------------|
--------------------|------------2----3----|--5---------7----------|
--L-----------------|-------4--------------|-------3---------6--7--|
--------------------|----------------------|-----------------------|
--------------------|----------------------|-----------------------|
--------------------|----------------------|-----------------------|


  Q    H.              W                   E  E  E  E  E  Q    E   
--------------------|-------------------|--5-------------------5--|
--------------------|-------------------|-----3--3--3--2--3-------|
--7-----------------|-------------------|-------------------------|
--------------------|-------------------|-------------------------|
--------------------|-------------------|-------------------------|
--------------------|-------------------|-------------------------|


  E  E  Q    Q.     E     Q.     Q    Q    E     Q    H        E  E   
--L--7--5--------------|--5-----------5-------|----------------------|
--------------------7--|---------7------------|-------------------2--|
-----------------------|-------------------7--|--L-------------4-----|
-----------------------|----------------------|----------------------|
-----------------------|----------------------|----------------------|
-----------------------|----------------------|----------------------|


  E  E  E  Q    Q    E     E  Q    Q    Q    E     Q    Q    Q    E  E   
---------------------5--|--L--------------------|-----------------------|
--3--2-----5------------|-----3----3---------3--|--L-----------------2--|
--------4-------2-------|---------------4-------|-----------------4-----|
------------------------|-----------------------|-----------------------|
------------------------|-----------------------|-----------------------|
------------------------|-----------------------|-----------------------|


  E  E  E  Q    Q    E     E  Q    Q    Q    E     Q    H.                    
---------------------5--|--L--------------------|--------------------|-------|
--3--2-----5------------|-----3----3----2----3--|--L-----------------|-------|
--------4-------2-------|-----------------------|--------------------|-------|
------------------------|-----------------------|--------------------|-------|
------------------------|-----------------------|--------------------|-------|
------------------------|-----------------------|--------------------|-------|


-------||
-------||
-------||
-------||
-------||
-------||

--------------------------------------


Anime finished recently and damn the ending of the third season was amazing.
Chihiro best girl!



Duration Legend
---------------
W - whole
H - half
Q - quarter
E - 8th
S - 16th
T - 32nd
X - 64th
. - note dotted
|-n-|  - n-tuplets


Tablature Legend
----------------
L - tied note
x - dead note
g - grace note
(n) - ghost note
> - accentuded note
NH - natural harmonic
AH - artificial harmonic
TH - tapped harmonic
SH - semi harmonic
PH - pitch harmonic
h - hammer on
p - pull off
b - bend
S - shift slide
s - legato slide
/ -  slide into from below or out of upwards
\ -  slide into from above or out of downwards
~ - vibrato
W - wide vibrato
tr - trill
TP - tremolo picking
T - tapping
S - slap
P - pop
< - fade in
^ - brush up
v - brush down
Login or Register to remove this ad.

2 comments on Hajimete Koi wo Shita Kioku ~Piano Bansou~

Chihiro ;_;

Chihiro ;_;

ooooo

5

o.O a finger tab version of this, nice I haven't had time to transcribe one from the notes I have. Excellent! Now we just need the rock version they had at the end of Season 3 :P