Ads

Gravity (Wolf's Rain) Guitar Tab

Submitted: Feb 06, 2020 by GomiNoUmi (Last updated: Feb 06, 2020)

5
Average: 5 (2 votes)
Download | Listen
Game: Wolf's Rain
Composer(s): Yoko Kanno
Style: Fingerstyle

AutoScroll: Slow | Medium | Fast
Title: Gravity
Composer: Yoko Kanno
Artist: Maaya Sakamoto
Anime: Wolf's Rain
Song: https://www.youtube.com/watch?v=SVWM7hq7SCo
Arrangement by: GomiNoUmi
Made: 5.2.2020

Standard tuning
Rhythm 4/4



     Q.     E  E  E  E  E     E  E  Q    E  E  E  E     Q.     E  E  E  E  E   
E||--5---------------------|-------------5--7--4--5--|--5---------------------|
B||--5---------------------|-------------------------|--5---------------------|
G||------------------------|-------------------------|------------------------|
D||------------------4--2--|--L----------------------|------------------4--2--|
A||------------0--4--------|-----2--0----------------|------------0--4--------|
E||---------0--------------|-------------------------|---------0--------------|


  E  E  H.              W                   Q    Q    Q    Q     
---------------------|-------------------|----------------------|
--------7------------|--L----------------|--2----2----2----2----|
--------6------------|--L----------------|--2----2----2----2----|
--6--7--6------------|--L----------------|--4----4----4----4----|
--------4------------|--L----------------|----------------------|
---------------------|-------------------|----------------------|


  Q    Q    Q    S E.     Q    E  S S S E.  E  E     E  S S E  S S S E.  Q     
-----------------2-4---|--5----4--2-1-------------|--2--2-0-------------------|
--2----2----2----2-----|--2----2--------2------2--|--0------0--3-2---0--------|
--2----2----2----2-----|--2----2------1-----1-----|--0------0------0-----0----|
--4----4----4----4-----|--4----4------3-----3-----|--0------0------2-----2----|
-----------------------|--------------------------|----------------0-----0----|
-----------------------|--------------------------|---------------------------|


  E  S S E  S S E  S S E  S S    Q    Q    Q    S E.   
------------------------------|-----------------------|
--2--2-2----3-2----0--------2-|-------------------0---|
--2------2------2----2--------|--2----2----2----2-----|
--4------4------3------3--2---|--2----2----2----2-----|
--5------5------5------5------|--4----4----4----4-----|
------------------------------|-----------------------|


  Q    E  S S Q    E  E     E  E  Q    Q    E  E     Q    E  E  Q    E  S S  
-------------------2--4--|-----5------------2--0--|-------2---------------0-|
--2----0----0------0-----|--2-----2----4----4-----|-------------------------|
--2----2--2--------------|--2-----2----2----2-----|--2----2--2----------2---|
--0----0------3----3-----|--2-----2----4----4-----|--2----2-----4----4------|
--------------4----4-----|-------------2----2-----|--4----4-----0----0------|
-------------------------|------------------------|-------------2----2------|


  E.  S Q    Q    S E.     Q    E  S S S E.  E  E   
------------------2-4---|--5----4--2-1-------------|
--------0---------------|--2----2--------2------2--|
------6------1----------|--2----2------1-----1-----|
--4-----4----4----3-----|--4----4------3-----3-----|
--5-----5----4----4-----|--------------------------|
--3-----3---------------|--------------------------|


  E  S S E  S S S E.  S E  S    E  S S E  S S E  S S E  S S  
--2--2-0----2-----------0----|------------------------------|
--0------0----2---0----------|--2--2-2----3-2----0--------5-|
--0------0------0-----0----2-|--2------2------2----2----2---|
--0------0------2-----2------|--4------4------3------3------|
----------------0-----0------|--5------5------5------5------|
-----------------------------|------------------------------|


  S S E  Q    Q    S E.     Q    E  S S Q    E  E     E  E  Q    H         
-------------------------|-------------------2--4--|-----5----------------|
------2--------------0---|--2----0----0------0-----|--2-----2----4--------|
--2-2----2----2----2-----|--2----2--2--------------|--2-----2----2--------|
--2------2----2----2-----|--0----0------3----3-----|--2-----2----4--------|
--4------4----4----4-----|--------------4----4-----|-------------2--------|
-------------------------|-------------------------|----------------------|


  E  S S E  S S Q    Q       E  S S E  S S Q    Q     
--------------2------2----|--------------4------4----|
--5--5-5--------2----2----|--7--7-7--------4----4----|
--2------2--2---3----3----|--4------4--4---5----5----|
--2------2------2----2----|--4------4------4----4----|
--4------4----------------|--6------6----------------|
--------------------------|--------------------------|


  E  S S E  S S E  E  S S E     Q    E  E  E  S S E  S S  
--------------6----7--6------|----------6--4--2----------|
--9--9-9--------6-----6-9-7--|------------------4----6-7-|
--6------6--6---7-----7------|--8----8-----3------3------|
--6------6------6-----6------|--8----8-------------------|
--8------8-------------------|--6----6-----4------4------|
-----------------------------|---------------------------|


  Q    Q    Q    Q       Q    E  E  Q    E  E     Q    E  S S Q    Q     
------------2----1----|--2----------2----------|------------------------|
------------2----2----|--2----2--2--2----2-----|--0----0----------------|
--3----3----1----1----|--3----3-----3----3--2--|--2----2------4----6----|
--4----4--------------|-------------1----1-----|--0----0--6-7-6----6----|
--3----3----2----2----|--1---------------------|--------------4----4----|
----------------------|------------------------|------------------------|


  Q    Q    Q    Q       Q    Q    E  E  S S S S  
--5--------------7----|--5---------2--0----------|
--2----2----9---------|--3----3----2-----2-0---2-|
--2----2----6----6----|--4----4----0-----0---2---|
--4----4----6----6----|--2----2----2-----2-------|
------------8----8----|------------0-----0-------|
----------------------|--------------------------|


  E  S S E  S S E  S S E  S S    Q    Q    Q    E  S S  
------------------------------|------------------------|
-----2-2----3-2-------------2-|--------------------0-2-|
--2------2------2--4-2--------|--2----2----2----2------|
--4------4------3------3--2---|--2----2----2----2------|
--5------5------5------5------|--4----4----4----4------|
------------------------------|------------------------|


  Q    S S. T T T Q    E  E     E  E  Q    H           Q    E  E  E  E  E  E   
-----------------------2--4--|-----5----------------|-------------------2--0--|
-------0----2---0------0-----|--2-----2----4--------|----------------2--------|
--2----2-2----2--------------|--2-----2----2--------|--2-------2--2-----------|
--0----0----------3----3-----|--2-----2----4--------|--2-------2--------2-----|
------------------4----4-----|-------------2--------|--0-------0--------0-----|
-----------------------------|----------------------|-------------------------|


  E  E  E  Q.     Q       Q    E  E  E  E  E  E     E  E  E  Q    E  Q     
-----------------------|-------------------2--0--|------------------------|
-----0-----------------|----------------2--------|-----0------------------|
--2-----2--2------2----|--2-------2--2-----------|--2-----2--2----2--4----|
--0--------0------0----|--2-------2--------2-----|--0--------0------------|
-----------------------|--0-------0--------0-----|------------------------|
-----------------------|-------------------------|------------------------|


  Q    Q    Q    Q       Q    Q    Q    S E.     Q    E  S S S E.  E  E   
----------------------|-----------------2-4---|--5----4--2-1-------------|
----------------------|-----------------2-----|--2----2--------2------2--|
--2----2----2----2----|--2----2----2----2-----|--2----2------1-----1-----|
--4----4----4----4----|--4----4----4----4-----|--4----4------3-----3-----|
----------------------|-----------------------|--------------------------|
----------------------|-----------------------|--------------------------|


  E  S S E  S S S E.  Q       E  S S E  S S E  S S E  S S  
--2--2-0-------------------|------------------------------|
--0------0--3-2---0--------|--2--2-2----3-2----0--------2-|
--0------0------0-----0----|--2------2------2----2--------|
--0------0------2-----2----|--4------4------3------3--2---|
----------------0-----0----|--5------5------5------5------|
---------------------------|------------------------------|


  Q    Q    Q    S E.     Q    E  S S Q    E  E     E  E  Q    H         
-----------------------|-------------------2--4--|-----5----------------|
-------------------0---|--2----0----0------0-----|--2-----2----4--------|
--2----2----2----2-----|--2----2--2--------------|--2-----2----2--------|
--2----2----2----2-----|--0----0------3----3-----|--2-----2----4--------|
--4----4----4----4-----|--------------4----4-----|-------------2--------|
-----------------------|-------------------------|----------------------|


  Q    E  E  E  E  E  E     Q    E  E  E  E  E  E     Q    E  E  E  E  E  E   
-------------------2--0--|-------------------5--7--|--7----------5--7--9--9--|
----------------2--------|-------------7--9--------|-------------------------|
--2-------2--2-----------|-------------------------|-------------------------|
--2-------2--------2-----|--7-------7--------7-----|-------------------------|
--0-------0--------0-----|--5-------5--------5-----|--7-------7--------7-----|
-------------------------|-------------------------|--5-------5--------5-----|


  H.           E  S S    E  E  E  E  E  Q.      
----------------------|-----------------0------|
--------------------0-|--2--0-----0-----3------|
--7---------------2---|--2-----2--0-----2------|
--7-------------------|--2--------0-----4------|
--5-------------------|--0---------------------|
----------------------|-----------3------------|


  E  E  E  E  E  E  X X X X X E  T.    W                  
--0--------------0------------0--L--|--L----------------||
--------------0-------------0-L--L--|--L----------------||
-----------1--------------1-L-L--L--|--L----------------||
--------4---------------4-L-L-L--L--|--L----------------||
-----2----------------2-L-L-L-L--L--|--L----------------||
--0-----------------0-L-L-L-L-L--L--|--L----------------||




Duration Legend
---------------
W - whole
H - half
Q - quarter
E - 8th
S - 16th
T - 32nd
X - 64th
. - note dotted
|-n-|  - n-tuplets


Tablature Legend
----------------
L - tied note
x - dead note
g - grace note
(n) - ghost note
> - accentuded note
NH - natural harmonic
AH - artificial harmonic
TH - tapped harmonic
SH - semi harmonic
PH - pitch harmonic
h - hammer on
p - pull off
b - bend
br - bendRelease
pb - preBend
pbr - preBendRelease
brb - bendReleaseBend
\n/ - tremolo bar dip
\n - tremolo bar dive
-/n - tremolo bar Release up
/n\ - tremolo bar inverted dip
/n - tremolo bar return
-\n - tremolo bar Release down
S - shift slide
s - legato slide
/ -  slide into from below or out of upwards
\ -  slide into from above or out of downwards
~ - vibrato
W - wide vibrato
tr - trill
TP - tremolo picking
T - tapping
S - slap
P - pop
< - fade in
^ - brush up
v - brush down
Login or Register to remove this ad.