Shaent Blathanna (The Witcher) Guitar Tab

Submitted: Jan 26, 2016 by IkuinenOnni (Last updated: Feb 27, 2016)

5
Average: 5 (1 vote)
Download | No audio :(
Game: The Witcher
Composer(s): Adam Skorupa, Pawel Blaszczak
Style: Arrangement, Fingerstyle

This song is also called Believe

Click here for a video example.

AutoScroll: Slow | Medium | Fast
Shaent Blathanna                                 
The Witcher
Composed by Adam Skorupa
Arranged by IkuinenOnni



Steel Guitar

     E  E  E   E    Q    E  E     E  E  E    E  Q    Q     
E||--3--------10--6g8----5-----|--6--------6g8--3---------|
B||----------------------------|---------------------3----|
G||-----0--2---7----5----2-----|--------0----5--3----2----|
D||-----0-------------------0--|-----0--------------------|
A||----------------------------|--------------------------|
E||--3----------------------1--|--3-----------------------|


  E  E  E  E  Q    E  E     E  E  E  E  Q    E  E   
-------------------------|----------------------1--|
-----------3--1----------|-----------1-------3-----|
-----0--2----------2-----|--------0-----3----2-----|
-----0-------------------|-----0-------------------|
-------------------------|-------------------------|
--3-------------------1--|--3-------------------1--|


  E  E  E   E    Q    E  E       E  E  E  E  Q    E  E   
--3--------10--6g8----5-----|--8g6-----5--3--1----1-----|
----------------------------|----------------1----1-----|
-----0--2---7----5----2-----|-------------0-------------|
--1----------------------0--|----------------0----------|
-----1----------------------|----6-----6----------------|
-------------------------1--|-------6----------------1--|


  E  E  E  E  E  E  E  E     E  E  E  E  E  E  S S S S  
--3-----------------------|--------------------3-5-6-8-|
-----------1--------3-----|-----------1----------------|
--------0-----3--0--2-----|--------0-----3--0----------|
-----0--------------------|-----0--------------0-------|
--------------------------|----------------------------|
--3--------------------1--|--3-------------------------|


   E  E  E  S S E  E  E  E       E  E    E  E  E  E  E  E   
--10--------8-6-5-----1-----|--8g6-----6g5--3--1-----------|
----------------------------|---------------1--------3-----|
------------5---5--0--2-----|------------0-----------------|
---------5------3--------3--|------------------0-----0-----|
---6------------------------|----6----------------0--------|
------6---------------------|-------6-------------------1--|


    E  E  E  E  Q    E  E     E  E  E  E  Q    S S S S  
--1g3----------------------|-------------------3-5-6-8-|
-------------1-------3-----|--3--------1---------------|
----------0-----3----2-----|--------0-----3------------|
-------0-------------------|-----0-------------0-------|
---------------------------|---------------------------|
----3-------------------1--|--3------------------------|


   E  E  E  S S E  E  E  E       E  E    E  E  E  E  E  E   
--10--------8-6-5-----1-----|--8g6-----6g5--3--1--------1--|
----------------------------|---------------1--1--1--3-----|
------------5---5--0--2-----|------------0-----------2-----|
---------5------3--------3--|------------------3-----------|
---6------------------------|----6-------------------------|
------6---------------------|-------6----------------------|


    E  E  E  E  Q    E  E     E  E  E  E  Q    E  E   
--1g3----------------------|-------------------------|
-------------1-------3-----|-----------1-------3-----|
----------0-----3----2-----|--------0-----3----2-----|
-------0-------------------|-----0----------------3--|
---------------------------|-------------------------|
----3-------------------1--|--3----------------------|


  S S S S S S S S E  S S S S S S    S S S S S S S S E  S S S S S S  
---------------------------------|-------------------------1-------|
--3------------------------------|---------------------------------|
--0---0-2-3-2-3-2------2-3-2---2-|------0-2-3-2-3-2------2-3-2---2-|
----0----------------0-------3---|----0----------------0-------0---|
---------------------------------|---------------------------------|
--3---------------3--------------|--3---------------3--------------|


  S S S S S S S S E  S S S S S S    S S S S S S S S E  S S S S S S  
---------------------------------|------------------1--------------|
--3------------------------------|---------------------------------|
--3-----2-3-2-3-2------2-3-2---2-|--------2-3-2-3-2------2-3-2---2-|
------0--------------0-------0---|------0--------------0-------0---|
----3----------------------------|----3----------------------------|
--3---------------3--------------|--3---------------3--------------|


  S S S S S S S S E  S S S S S S    S S S S S S S S E.  S S S S S  
--1---------------3--------------|--------------------------------|
---------------------------------|------------------1-------------|
------0-2-3-2-3-2----0-2-3-2---2-|------0-2-3-2-3-2-2---2-3-2---2-|
--1---------------1----------3---|--1---------------3---------3---|
----1----------------------------|----1---------------------------|
---------------------------------|--------------------------------|


  S S S S S S S S E  S S S S S S    S S S S S S S S S S S S S S S S  
----------6-----5----1-----------|--3-------------------------------|
--3---3--------------------3-----|--------3-----1-----3-------------|
--3-----2-3-2-3-2------2-3-2---2-|--------2-3-2-3-2-------2-3-2---2-|
------0--------------0-------0---|------0---------------0-------3---|
----3----------------------------|----3-----------------------------|
--3---------------3--------------|--3---------------3---------------|


  S S S S S S S S E  S S S S S S    S S S S S S S S E  S S S S S S  
---------------------------------|---------------------------------|
--------------3---1--------------|--------------1------------------|
--0---0-2-3-2-3-2------2-3-2---2-|--3---0-2-3-2-3-2-0----2-3-2---2-|
----0----------------0-------0---|----0----------------0-------0---|
---------------------------------|---------------------------------|
--3---------------3--------------|--3---------------3--------------|


  S S S S S S S S E  S S S S S S    S S S S S S S S E  S S S S S S  
---------------------------------|---------------------------------|
---------------------------------|---------------------------------|
------0-2-3-2-3-2------2-3-2---2-|------0-2-3-2-3-2------2-0-2-3-5-|
----0----------------0-------0---|----0----------------0-------0---|
---------------------------------|---------------------------------|
--3---------------3--------------|--3---------------3--------------|


  S S S S S S S S E  S S S S S S    S S S S S S S S E.  T  T S S S S  
--1-----------3------------------|-----------------------------------|
--3-----------4---4--------------|------------------3---4p-1-1-------|
------0-2-3-2-3-2----0-2-3-2---2-|------0-2-3-2-3-2-3---2------2---2-|
-----------------------------3---|--1---------------3------------3---|
----3----------------------------|----1------------------------------|
--3---------------3--------------|-----------------------------------|


  S S S S S S S S E  S S S S S S    S S S S S S S S S S S S S S S S  
----------6-----5----1-----------|--3-------------------------------|
--3---3--------------------3-----|--------3-----1-----3-----------1-|
--3-----2-3-2-3-2------2-3-2---2-|--------2-3-2-3-2-------2-0-2-3---|
------0--------------0-------0---|------0---------------0-------0---|
----3----------------------------|----3-----------------------------|
--3---------------3--------------|--3---------------3---------------|


  E  E  E  S S E  E  E  E     E  E  E  E  E  E  E  E   
---------------------------|--------------------------|
--3--------1---------------|--------------------------|
--0-----0----3-2--0--2-----|--3-----2--0--2--2--2-----|
--1------------3-----3-----|--1-----------3--3--0-----|
-----1---------------------|-----1--------5--5--5-----|
---------------1--------1--|-----------------------1--|


  E  E  E  E  Q    S S E     E  S S E  E  E  E  S S S S  
-------------------5-6-8--|--6----5----3----------------|
--------------------------|-----3-----------------------|
--0-----------------------|---------0--------0--0-2-3-5-|
--0--0--3--------------3--|-----0------0----------------|
-----------3--1----0------|---------------1-------------|
--3-----------3-----------|--3--------------------------|


  E  E  E  S S E  E  E  E     E  E  E  E  E  E  E  E   
---------------------------|--------------------------|
--3--------1---------------|-----------3--------------|
--0-----0----3-2--0--2-----|--3-----2--0--------------|
--1------------3-----3-----|--1-----------3--3--0--3--|
-----1---------------------|-----1--------5-----------|
---------------1--------1--|--------------------------|


  E  E  E  E  E  E  Q       E  S S E  E  Q    Q       W                 
--------------------6----|--5----3-----------------|-------------------|
-----------1--------3----|-----3------1--3----3----|-------------------|
--0-----0-----3--0-------|---------0-----3----3----|--0----------------|
--0--0-------------------|-----0-0-------5----5----|--5----------------|
-------------------------|-------------------------|--5----------------|
--3----------------------|--3----------------------|--3----------------|


  Q.     S S Q    Q       H        Q    Q       W                 
-----------------------|---------------------|-------------------|
---------1-------------|---------------------|--4----------------|
--3--------3-2---------|--0------------------|--0----------------|
--L---------------3----|--L--------1----3----|-------------------|
--L------L-L-L----L----|--L--------1----3----|-------------------|
--L------L-L-L----L----|--L------------------|--3----------------|


  S E.  E  S S H           H        H           S E.  S S S S H         
--3-3---L--3-3-L--------|--------------------|--3-3---L---3-3-3--------|
--4------------3--------|--1--------3--------|--4-------3-----1--------|
--0---------------------|--------------------|--3----------------------|
------------------------|--------------------|--1----------------------|
------------------------|--------------------|--1----------------------|
--3---------------------|--------------------|-------------------------|


  H        H           Q.     S S Q    Q       Q.     S S Q    Q     
--------------------|-----------------------|------------------1----|
--------------------|---------1-------------|-----------------------|
--2-----------------|--3--------3-2---------|--0------L-------------|
--------------------|------------------3----|-----------------------|
--0--------3--------|-----------------------|-----------------------|
--------------------|--3--------3-3---------|--3------L-3-3----L----|


  E  E  E  E  Q    E  E     Q.     S S Q    Q       H        H         
--3----------------------|-----------------------|--1--------3--------|
-----------3--1----3-----|-----------------------|--4--------4--------|
-----0-----2----------2--|--3------2-3-2---------|--0-----------------|
--------0-------------3--|--5---------------3----|--1-----------------|
-------------------------|-----------------------|--------------------|
--L--3-------------------|------------------1----|--------------------|


  H        Q    Q       S S E  E  E  E  E  E  E     S S E  E  E  E   E  E  E   
-----------1---------|---------------8--8-----5--|--L---6--------8--10-----6--|
--4--------1---------|------------1--------------|------------6------6-----8--|
--0-------------3----|--3-2-0--3-----0-----2-----|---------------0------------|
---------------------|--0------------------------|------0---------------------|
-----------3----1----|---------------------------|--1-3----1--3---------0-----|
--3------------------|--3------------------------|----------------------------|


  S S E  E  E  E  E  E  E     S  S E  E  E  E   E  E  E     W                  
--3---6-----6--8--6-----5--|-------6-----1--8--10-----5--|--3----------------||
------8-----8-----8--------|-------8-----1-----11-----6--|--3----------------||
---------------0-----------|----------------0------------|--3----------------||
---------8-----------------|--8-10----8------------------|-------------------||
----0----------------0-----|-----------------------0-----|-------------------||
--3------------------------|-----------------------------|--3----------------||




Duration Legend
---------------
W - whole
H - half
Q - quarter
E - 8th
S - 16th
T - 32nd
X - 64th
. - note dotted
|-n-|  - n-tuplets


Tablature Legend
----------------
L - tied note
x - dead note
g - grace note
(n) - ghost note
> - accentuded note
NH - natural harmonic
AH - artificial harmonic
TH - tapped harmonic
SH - semi harmonic
PH - pitch harmonic
h - hammer on
p - pull off
b - bend
br - bendRelease
pb - preBend
pbr - preBendRelease
brb - bendReleaseBend
\n/ - tremolo bar dip
\n - tremolo bar dive
-/n - tremolo bar Release up
/n\ - tremolo bar inverted dip
/n - tremolo bar return
-\n - tremolo bar Release down
S - shift slide
s - legato slide
/ -  slide into from below or out of upwards
\ -  slide into from above or out of downwards
~ - vibrato
W - wide vibrato
tr - trill
TP - tremolo picking
T - tapping
S - slap
P - pop
< - fade in
^ - brush up
v - brush down
Login or Register to remove this ad.