River of Life (The Witcher) Guitar Tab

Submitted: May 15, 2018 by Bhael

5
Average: 5 (3 votes)
Download | Listen
Game: The Witcher
Composer(s): Adam Skorupa, Pawel Blaszczak
Style: Arrangement, Fingerstyle, Natural harmonics

Click here for a video example.

AutoScroll: Slow | Medium | Fast
                                River of Life                                   
                                 The Witcher
                               Pawel Blaszczak




        NH                            NH                     
        E  E     H         Q          E  E    H        Q     
E||-----------------------------|---------------------------|
B||--------8--8g10---------L----|--------7--7g8--------7----|
G||-----------------------11----|---------------------------|
D||-----------------------------|--<>12---------------------|
A||--<>19-----------------------|---------------------------|
E||-----------------------------|---------------------------|


     NH                            NH                       ^                  
     E  E     H         Q          E  E    H        Q       H.           Q     
-----------------------------|---------------------------|--------------------|
--------8--8g10---------L----|--------7--7g8--------7----|---------------7----|
-----------------------11----|---------------------------|--7-----------------|
-----------------------------|--<>19---------------------|--0-----------------|
--<>19-----------------------|---------------------------|--------------------|
-----------------------------|---------------------------|--7-----------------|


  ^              NH                NH                   
  Q     Q        H           E     E    Q.     E  Q     
--0-----------------------|--0--------3g5---------2----|
--------------------------|-------------0--------------|
--0-----------------------|-----<>12-------------------|
-------10~----------------|----------------------------|
--------------<>12--------|----------------------------|
--8-----------------------|--0-----------------0-------|


  ^       ^                       NH                   
  E  E    Q.     E  Q       E     E    Q.     E  Q     
-----2--2g3---------2----|--0--------3g5---------2----|
--3-------0---------0----|-------------0--------------|
--4-------0--------------|-----<>12-------------------|
-------------------------|----------------------------|
-------------------------|----------------------------|
--0--------------0-------|--0-----------------0-------|


          ^         ^       ^                                               
  E  E    Q.     E  Q       Q.     E  E  E    Q       Q.     E  E  E  Q     
--3--5--5g7---------5----|--5---------------0g2----|--0---------------0----|
----------8--------------|--7-----------------3----|------------------1----|
--------------------7----|---------------2---------|--0------------0-------|
-------------------------|--0------0--0------------|-----------------------|
-------------------------|-------------------------|--3------3--3----------|
--0--------------0-------|-------------------------|-----------------------|


  ^                                                 NH                      
  Q.     E  Q    Q       H.           Q       E     E    E  E  E  E  E  E   
----------------------|--------------------|--0--------3g5-----------2-----|
--3--------------3----|--3------------3----|-----<>12-------0--L--0--------|
--2--------------2----|--2------------4----|-----<>12----------------2-----|
----------------------|--------------------|----------------------------4--|
--2------2--2---------|--2-----------------|-------------------------------|
----------------------|--------------------|--0----------------------------|


  ^                   ^              NH                      
  E  E    E  E  E  E  E  E     E     E    E  E  E  E  E  E   
-----2--2g3-----------2-----|--0--------3g5-----------2-----|
--3----------0--L--0-----0--|-----<>12-------0--L--0--------|
--4-------------------2-----|-----<>12----------------2-----|
----------------------------|----------------------------4--|
----------------------------|-------------------------------|
--0-------------------------|--0----------------------------|


  E  E  E  E  E  E  E  E     E  E  E  E  E  E    Q     
--5--2--3-----------2-----|--------------------0g2----|
-----------0--L--0-----0--|--3-----0--3--L------------|
--------2-----------2-----|-----2-----------2---------|
--------------------------|---------------------------|
--------------------------|--2------------------------|
--0-----------------------|---------------------------|


  E  E  E  E   E  E  Q       E  E  E  E  E  E  Q       H        Q    Q     
--0------------------0----|--------------------2----|--0--------0----0----|
--------0--1~--L-----1----|--3-----0--3--L----------|---------------------|
-----0---------------0----|-----2-----------2-------|--0--------0----0----|
--------------------------|-------------------------|---------------------|
--3---------------3-------|--2----------------------|--3--------3----0----|
--------------------------|-------------------------|---------------------|


          ^      ^      ^                ^      ^      ^      
   E  E   E  E   E  E   E  E      E  E   E  E   E  E   E  E   
--12-----12-----12-----12-----|--10-----10-----10-----10-----|
------8--10-------------0-----|------7---8-------------7-----|
---9-------------------11-----|---7------7-------------7-----|
------------------------------|------------------------------|
------------------------------|------------------------------|
---0---------0------0------0--|---0---------0------0------0--|


           ^      ^      ^                 ^      ^      ^      
   E   E   E  E   E  E   E  E      E   E   E  E   E  E   E  E   
--14------14-----14-----14-----|--15------15-----15------0-----|
-----------0------0------0-----|----------12-----12-----12-----|
------12--14------------11-----|--12--14----------------14-----|
--14---------------------------|-------------------------------|
-------------------------------|-------------------------------|
---0----------0------0------0--|---0----------0------0------0--|


       ^     ^     ^            ^     ^     ^              ^      ^         
  Q    E  E  E  E  Q       Q    E  E  E  E  Q        Q     E  E   H         
--5----5-----5-----5----|--7----7-----7-----7----|--10----10-----10--------|
-------7-----7-----7----|-------8-----8-----8----|---------7------7--------|
-------------7-----7----|-------9-----9-----9----|---------7------7--------|
--0-------0-----0-------|------------------------|---------9------9--------|
------------------------|------------------------|-------------------------|
------------------------|--8-------8-----8-------|---7--------7------------|


                ^          NH                 NH                       
  H.            Q          H        Q.        E     W                  
--L------------10----|--<>12--------5------------|--2~----------------|
--L-------------7----|--<>12---------------<>12--|--------------------|
--L-------------7----|---------------------------|--------------------|
----------------9----|---------------------------|--------------------|
----------------9----|---------------------------|--------------------|
----------------7----|-----0---------------------|--------------------|


     NH                 NH                NH                                  
     H        Q.        E     H           Q    Q       E.  S  Q.     E  Q     
-----0--------5------------|--7----------------2----|------0h-2---------2----|
--<>12---------------------|------------------------|--3----------------3----|
---------------------<>19--|------------------------|----------------4-------|
---------------------------|-----------<>19---------|------------------------|
---------------------------|------------------------|--2---------------------|
-----0---------------------|------------------------|------------------------|


                           ^                               ^     ^     
  E.  S  Q.     E  Q       W                   E  E  E  E  E  E  Q     
--0---2h-3---------3----|--5----------------|--7-----------5-----7----|
------------------------|-------------------|--------5-----3----------|
------------------------|--0----------------|-----4-----4--4-----7----|
------------------------|-------------------|-------------------------|
--3-------------3-------|--3----------------|-------------------------|
------------------------|-------------------|--0-----------0--0-------|


                                         ^      ^     
  E  E  E  E  E  E  E  E     E  E  E  E  E  E   Q     
--2-----------------------|--7-----------5-----10----|
--------3-----0-----------|--------5-----3------7----|
-----4-----2-----0-----0--|-----4-----4--4--4---7----|
--------------------4-----|--------------------------|
--------------------------|--------------------------|
--0-----------------------|--0-----------0------0----|


  ^            ^                                      
  E  E  E  E   Q     Q       E.  S  E  E  E  E  Q     
--7------------------0----|------0h-2-----------2----|
--8-----8-----10~---------|--3------------3----------|
--9--9-----9---9~---------|------------2-----2-------|
--------------------------|--0-----------------------|
--------------------------|--------------------------|
--0------------0----------|--------------------------|


                                                        ^                 
  E.  S  E  E  E  E  Q       E.  S E  E  E  E  E  E     W                 
--0---2h-3-----------0----|------0-2-----------------|--0----------------|
---------------1----------|--3-----------0-----------|--0----------------|
--0---------0-----0-------|-----------2-----0-----0--|--0----------------|
--------------------------|--------------------4-----|--2----------------|
--3-----------------------|--2-----------------------|-------------------|
--------------------------|--------------------------|-------------------|


  Q.     E  E  E  Q       Q    E  E  E  E  E  E     E  E  E  E  E  E  Q     
--0------------3--2----|----------2--------0-----|-----------0--L--3--2----|
--0------0--L----------|-------3--------3-----3--|--------0----------------|
-----------------------|-------------------------|-----0-------------------|
--2--------------------|-------------0-----------|--2----------------------|
-----------------------|--2----------------------|-------------------------|
-----------------------|-------------------------|-------------------------|


  Q    E  E  E  E  E  E     E  E  E  E  E  E  E  E     Q    E  E  E  E  E  E   
----------2--------0-----|-----------0--L--3--2--L--|----------2--------------|
-------3--------3-----3--|--------0-----------------|-------3-----------3-----|
-------------2-----------|-----0--------------------|----------------2-----2--|
--4----------------------|--2-----------------------|--4----------0-----------|
-------------------------|--------------------------|-------------------------|
-------------------------|--------------------------|-------------------------|


                       ^                                       NH        
  H.           Q       H        H            E  E  E  E  E     E  E  E   
---------------2----|--0------------------|--0--------------------2-----|
---------------3----|---------------------|--0--------0--------------0--|
--------------------|--0------------------|--------0--------<>12--------|
--------------------|-----------4~--------|--2--------------<>12--------|
--2-----------------|--3------------------|-----------------------------|
--------------------|---------------------|-----0--------0--------------|


                                               NH        
  E  E  E  E  E  E  E  E     E  E  E  E  E     E  E  E   
--------2-----------2-----|--3--------------------2-----|
-----3-----3-----3-----3--|--0--------0--------------0--|
--------------------------|--------0--------<>12--------|
--------------0-----------|--2--------------<>12--------|
--2-----------------------|-----------------------------|
--------------------------|-----0--------0--------------|


                                               NH        
  E  E  E  E  E  E  E  E     E  E  E  E  E     E  E  E   
--------2-----------0-----|--0--------------------2-----|
-----3-----3-----3-----3--|--0--------0--------------0--|
--------------2-----------|--------0--------<>12--------|
--4-----------------------|--2--------------<>12--------|
--------------------------|-----------------------------|
--------------------------|-----0--------0--------------|


  E  E  E  E  E  E  E  E     H.           Q       H.           Q     
--------2-----------------|---------------2----|--0-----------------|
-----3-----3--------3-----|--3------------3----|--3------------3----|
-----------------2-----2--|--2------------2----|--0------------0----|
--4-----------0-----------|--------------------|--------------------|
--------------------------|--2-----------------|--3------------3----|
--------------------------|--------------------|--------------------|


          ^                  ^                   ^                    
  E  E    H        Q         W                   E  E  H        Q     
--0--3--3g5--------2----|--2g3----------------|--2--3--2-------------|
--0-------0-------------|----0----------------|--------0--------3----|
------------------------|----0----------------|--0-------------------|
------------------------|---------------------|----------------------|
------------------------|---------------------|--3-------------------|
--0---------------------|---------------------|----------------------|


  ^                                 ^       ^                  
  H.           Q       H.           Q       H.           Q     
--------------------|--0------------0----|--2-----------------|
--3------------3----|--3------------3----|--5------------3----|
--2------------2----|--0------------0----|--2-----------------|
--------------------|--------------------|--0-----------------|
--2-----------------|--3-----------------|--------------------|
--------------------|--------------------|--------------------|


                        ^                       ^                    
  H        Q    Q       H        Q      Q       H        Q    Q      
--0------------------|--2--------5----2g3----|--3--------7----------|
---------------------|--0--------------------|--0-------------------|
----------------0----|-----------0-----------|----------------------|
--2--------4---------|--4--------------------|--2--------4----7~----|
---------------------|-----------------------|----------------------|
---------------------|-----------------------|----------------------|


                        ^         ^            ^                      
  H        Q    Q       Q    Q    Q    Q       Q    Q    Q      Q     
--5--------2---------|--0---------3---------|--2---------5----2g3----|
----------------3----|--0---------0---------|--0---------------------|
---------------------|-----------------0----|------------------------|
--0------------------|--2---------4---------|--4---------0-----------|
---------------------|----------------------|------------------------|
---------------------|-------0--------------|-------0----------------|


  ^                                             ^                       
  Q    Q    Q    Q        H        Q    Q       Q.     E  E  E  S  E.   
--3---------7----------|--5--------3----2----|------------------0h-2---|
--0--------------------|---------------------|--3---------3------------|
-----------------------|---------------------|---------4-----4---------|
--2---------4----7~----|--0------------------|-------------------------|
-----------------------|---------------------|--2----------------------|
-------0---------------|---------------------|-------------------------|


  Q.     E  E  E  Q       E  E  E  E  E  E  S  E.     E  E  E  E  E  E  Q     
--0---------------0----|--------------------0h-2---|--0----------------------|
------------3----------|--3-----3-----3------------|--------3-----3-----3----|
---------0-----0-------|-----4-----4-----4---------|-----0-----0-----0-------|
-----------------------|---------------------------|-------------------------|
--3--------------------|--2------------------------|--3----------------------|
-----------------------|---------------------------|-------------------------|


                    NH                                   
  E  E  E  E  E     E  E  E     E  E  E  E  E  E  E  E   
--0--------------------2-----|--------2-----------0-----|
--0--------0--------------0--|-----3-----3-----3-----3--|
--------0--------<>12--------|--------------------------|
--2--------------<>12--------|--------------0-----------|
-----------------------------|--2-----------------------|
-----0--------0--------------|--------------------------|


                    NH                                  
  E  E  E  E  E     E  Q       E  E  E  E  E  E  E  E   
--3--------------------2----|--------2-----------0-----|
--0--------0----------------|-----3-----3-----3-----3--|
--------0--------<>12-------|--------------2-----------|
--2--------------<>12-------|--4-----------------------|
----------------------------|--------------------------|
-----0--------0-------------|--------------------------|


                    NH                                   
  E  E  E  E  E     E  E  E     E  E  E  E  E  E  E  E   
--0--------------------2-----|--------2-----------------|
--0--------0--------------0--|-----3-----3--------3-----|
--------0--------<>12--------|-----------------2-----2--|
--2--------------<>12--------|--4-----------0-----------|
-----------------------------|--------------------------|
-----0--------0--------------|--------------------------|


                          ^                                            
  Q.     E  E  E  Q       H        H           Q    E  E  E  E  E  E   
-----------------------|--0-----------------|--0----------7-----------|
------------3-----3----|--3--------3--------|----------0--------------|
---------4-----4-------|--0--------0--------|-------0--------0-----0--|
-----------------------|--------------------|-------------------4-----|
--2--------------------|--3-----------------|-------------------------|
-----------------------|--------------------|--0----------------------|


     NH T  T        NH                                     
     E  E  E  E     E  E  Q       E  E  E  E  E  E  E  E   
--------------------------0----|--3-----------7-----------|
--------------0----------------|--------0-----------------|
--<>19-------------------------|-----0-----0-----0-----0--|
-----------------<>19----------|--2-----------------4-----|
-----------9-----------5-------|--------------------------|
--------7----------------------|--------------------------|


  E  E  E  E    Q    Q       Q    E  E  E  E  E  E   
--5-----------0g2---------|--0----------7-----------|
--------3------------3----|----------0--------------|
-----2-----2--------------|-------0--------0-----0--|
--0-----------------------|-------------------4-----|
--------------------------|-------------------------|
--------------------------|--0----------------------|


     NH T  T        NH                                 ^                  
     E  E  E  E     E  E  Q       H.           Q       H.           Q     
--------------------------0----|--------------------|--0------------0----|
--------------0----------------|--3------------3----|--3-----------------|
--<>19-------------------------|---------------2----|--4-----------------|
-----------------<>19----------|--------------------|--------------------|
-----------9-----------5-------|--2------------2----|--3-----------------|
--------7----------------------|--------------------|--------------------|


  ^                                   NH                                
  H.           Q       S S S S S S    H        E     W                  
--2-----------------|------------0-<>24--------L--|--L----------------||
--3------------5----|----------0------------------|-------------------||
--2-----------------|--------0--------------------|-------------------||
--0-----------------|------2----------------------|-------------------||
--------------------|----2------------------------|-------------------||
--------------------|--0--------------------------|-------------------||



Login or Register to remove this ad.