Kaer Morhen (The Witcher) Guitar Tab

Submitted: Feb 12, 2018 by Bhael

4.25
Average: 4.3 (4 votes)
Download | Listen
Game: The Witcher
Composer(s): Adam Skorupa, Pawel Blaszczak
Style: Arrangement, Fingerstyle, Natural harmonics, Percussion, Tapped harmonics

This song is also called Old Manor

Click here for a video example.

AutoScroll: Slow | Medium | Fast
                                 Kaer Morhen                               
                                 The Witcher
                       Adam Skorupa & Pawel Blaszczak



                  NH                                                      
      H           H             H        H             H.           Q     
E||---0--------------------|--3g5--------2--------|--2g3------------5----|
B||------------<>12--------|----------------------|----------------------|
G||*-----------------------|----------------------|----------------------|
D||*-----------------------|----------------------|----------------------|
A||------------------------|----------------------|----------------------|
E||------------------------|----------------------|----------------------|


                   NH                                                     
  H.               Q        W                       Q    E  E  Q.     E   
------------------------|---------------------||--2g3----2--0------------|
--5~--------------------|---------------------||---------------3------3--|
------------------------|--------------------*||-------------------------|
------------------------|--------------------*||-------------------------|
----------------<>19----|---L-----------------||-------------------------|
------------------------|---------------------||-------------------------|


                                            NH                            
  |--3--|                                                                 
  E  E  E  E  E  E  E   Q       H           H           W                 
-----------------------------|-----------------------|-------------------|
--3--5--3--0-----0--3s--5----|--L--------------------|-------------------|
--------------2--------------|-----------------------|-------------------|
-----------------------------|-----------------------|-------------------|
-----------------------------|-----------<>19--------|--L----------------|
-----------------------------|-----------------------|-------------------|


     NH               NH              NH              
     H        Q       Q       Q       Q    Q.     E   
---------------------------|-------------------------|
--------------0------------|--0------------2------2--|
---------------------------|-------------------------|
---------------------------|-------<>12--------------|
-------------------<>12----|-------------------------|
--<>12---------------------|-------------------------|


  |---3---|                                                                
  E   E   E  E  E  E  E  E  E     W                    H        Q    Q     
-------------------------------|--------------------|---------------------|
--2h--3p--2--0-----0--2--------|--------------------|-----------0---------|
----------------2--------4-----|--------------------|----------------2----|
-------------------------------|--2~----------------|--2------------------|
-------------------------------|--------------------|--2-------------0----|
----------------------------0--|--------------------|--0------------------|


            ^                                    
                             |--3--|             
  Q    Q    H           Q    E  E  E  Q.     E   
-------0----0--------|--0-----------------------|
--0---------0--------|-------0--0--0--0---------|
------------6--------|-------7--7--7--6------6--|
------------7--------|-------7--7--7--7---------|
--2---------0--------|--------------------------|
---------------------|--------------------------|


                                                                    ^           
  |---3---|                                                                     
  E   E   E  E  E  E  E   E  E     H.            Q       Q    E  E  E  E  Q     
--------------------------------|---------------------|-------------0----------|
-------------0-----0------------|----------------3----|-------------0-----3----|
--6h--7p--6-----------6---------|---------------------|--0----L-----0----------|
----------------7--------/9-----|---------------------|--0----L-----0----------|
--------------------------------|--7~-----------------|------------------------|
-----------------------------0--|---------------------|--3----L--3-----3-------|


  ^                       ^       ^  ^                          T         
  Q    E  E  Q    Q       Q    E  E  Q    Q       Q    E  E     H         
-----------------------|-----------------------|-------------------------|
--2----L-----0---------|-----------------------|--0----------<>12--------|
--0----L-----0---------|--2----L----------2----|--0----------<>12--------|
--0----L-----0---------|--4--------------------|-------------<>12--------|
-----------------------|--4-------4--4---------|-------------------------|
--3----L--3-------3----|--2----L--2--2---------|--3----L--3--------------|


  ^             ^                       ^            ^                      
  Q    E  E  E  E  Q         Q    E  E  Q    Q       Q    E  E  E  E  Q     
-------------0----------|-------------------------|------------------------|
--3----------------3----|--0g2----L-----0----0----|------------------------|
--0---------------------|---------------0---------|--2----L-----------2----|
--0-------------0-------|---------------0---------|--4----------4----------|
--x-------------x-------|-------------------------|--4---------------------|
--3----L--3-----3-------|----3----L--3------------|--2----L--2-----2-------|


                                     NH          ^                 
  Q    Q    H            H           H           W                 
----------------------|-----------------------|-------------------|
----------------------|-----------------------|-------------------|
--0-------------------|--0--------------------|-------------------|
-------4--------------|-----------------------|--2----------------|
------------7~--------|-----------<>12--------|--2----------------|
--0-------------------|-----------------------|--0----------------|


           NH       NH                         NH       NH    T           T   
                                      |-3-|                      |-3-|        
  E  E     E  E     E  E  E  E     E  S S S    E  E     E     E  S S S    E   
--------------------------------|--------------------------<>12--------<>12--|
--------------------------------|--------------------------<>12--------<>12--|
-----x--------x--------x-----x--|-----x-x-x-------x--------<>12--x-x-x-<>12--|
--------<>12--------------x-----|-----------<>12-----------------------------|
-----------------<>12-----------|--------------------<>12--------------------|
--0-----------------------------|--0-----------------------------------------|


              NH       NH           
     |-3-|                          
  E  S S S    E  E     E  E  E  E   
-----------------------------------|
-----------------------------------|
-----x-x-x-------x--------x-----x--|
-----------<>12--------------x-----|
--------------------<>12-----------|
--0--------------------------------|


              NH       NH    T           T   
     |-3-|                      |-3-|        
  E  S S S    E  E     E     E  S S S    E   
--------------------------<>12--------<>12--|
--------------------------<>12--------<>12--|
-----x-x-x-------x--------<>12--x-x-x-<>12--|
-----------<>12-----------------------------|
--0-----------------<>12--------------------|
--------------------------------------------|


              NH       NH           
     |-3-|                          
  E  S S S    E  E     E  E  E  E   
-----------------------------------|
-----------------------------------|
-----x-x-x-------x--------x-----x--|
-----------<>12--------------x-----|
--------------------<>12-----------|
--0--------------------------------|


              NH       NH    T           T                 NH       NH          
     |-3-|                      |-3-|             |-3-|                         
  E  S S S    E  E     E     E  S S S    E     E  S S S    E  E     E  E  Q     
--------------------------<>12--------<>12--|-----------------------------0----|
-------x-x----------------<>12--------<>12--|----------------------------------|
--6--------------x--------<>12--x-x-x-<>12--|--7-----------7-------------------|
-----------<>12-----------------------------|-------x---<>12-----<>12----------|
--0--0--------------<>12--------------------|-----x---x-------x--<>12----------|
--------------------------------------------|--7-----------------------7-------|


                NH       NH       T                   NH       NH     T       
       |-3-|                                 |-3-|                            
    E  S S S    E  E     E  E     Q       E  S S S    E  E     E  E   E   E   
|---0----------------------------------|--5--------------------2-------------|
|------------------------------<>12----|-----------------------------(0)-----|
|*-----x-x-x-------x-----------<>12----|-----------------------------(0)-----|
|*-----------<>12----------------------|-----------<>12--------------(2)-----|
|---------------------<>12-------------|-------x-x----------<>12-------------|
|---0-----------------------x----------|--0--0-----------x--------x-------x--|


              NH       NH       T     
     |-3-|                            
  E  S S S    E  E     E  E     Q     
--3----------------------------------|
-------------------------------------|
-----------------x--------x----------|
-----------<>12-----------x--<>19----|
-------x-x----------<>12-----<>19----|
--0--0-------------------------------|


              NH       NH    T           T     
     |-3-|                      |-3-|          
  E  S S S    E  E     E     E  S S S    E     
--0-----------------------<>12--------<>12---||
--------------------------<>12--------<>12---||
-----x-x-x-------x--------<>12--x-x-x-<>12--*||
-----------<>12-----------------------------*||
--------------------<>12---------------------||
--0------------------------------------------||


              NH       NH       T                   NH       NH    T            
     |-3-|                                 |-3-|                      |-3-|     
  E  S S S    E  E     E  E     Q       E  S S S    E  E     E     E  S S S E   
--3-----------2--0-------------------|--0-----------------------<>12--------0--|
-----------------------3-------------|--------------------------<>12-----------|
--------------------------x----------|-----x-x-x-------x--------<>12--x-x-x----|
-----------<>12-----------x--<>12----|-----------<>12--------------------------|
-------x-x----------<>12-----<>12----|--------------------<>12-----------------|
--0--0-------------------------------|--0--------------------------------------|


           ^     ^                             ^     ^     
     |-3-|                         |-3-|                   
  E  S S S E  E  E  E  Q        E  S S S E  E  E  E  Q     
-----------------------------|--0--0-0-0-0-----2-----0----|
--3--3-3-3-3-----3-----3~----|-----0-0-0-------0-----0----|
-----4-4-4-4-----4-----------|-----2-2-2------------------|
--------------------4--------|--------------------2-------|
--2-----------2--------------|--0-----------0-------------|
-----------------------------|----------------------------|


           ^     ^                      ^      ^             
     |-3-|                        |-3-|                      
  E  S S S E  E  E  E  Q       E  S S S E  E   Q.      S  S  
----------------------------|-----------------(0)------7h-9-|
--3--3-3-3-3-----3-----0----|-----0-0-0-0------0------------|
-----0-0-0-0-----0-----0----|--6--6-6-6-6------6------------|
-----0-0-0-0----------------|-----7-7-7-7-------------------|
----------------------------|--9-----------9----------------|
--3-----------3-----3-------|-------------------------------|


                                                            NH           
       |--3--|                             |--3--|                       
   E   S  S  S E  E   E  E   Q         E   S  S  S E  E     E  E   Q     
--10--10-10-10-L-----10-----10S----|--12--12-12-12-L--------------12----|
-------7--7--7--------7------7-----|------10-10-10-L-----<>19-----10----|
-------7--7--7--------7------7-----|-------9--9--9-L-----------x---x----|
-------------------------9---------|------11-------------------x--------|
-----------------------------------|---0--------------0-----------------|
---7--------------7----------------|------------------------------------|


                                                     T           
       |--3--|                        |-3-|                      
   E   S  S  S E  E  E  E  Q       E  S S S E  E     E  E  Q     
--10--10-10-10-L-----9-----9----|--7--7-7-7-L--------------7----|
-------0--0--0-L-----0-----0----|-----0-0-0---------------------|
-------0--0--0-L-----0-----x----|-----6-6-6----------------6----|
------------------------x-------|-----------------<>19----------|
------------------------x-------|--------------x--<>19----------|
---3--------------3-------------|--2-----------x--------2-------|


  PM PM PM PM PM PM PM PM    PM                                            
  E  E  E  E  E  E  E  E     H.           E   E     E  E  E  E  Q    Q     
--7-----------------------|----------------------|------------------------|
--------------------------|---------------0h--2--|--3---------------------|
--------------------------|----------------------|-----------2--4----4----|
--------------------------|----------------------|--------4---------------|
--------------------------|----------------------|-----2--------x---------|
--7--7--7--7--7--7--7--7--|--7-------------------|--x-----------x---------|


              ^                                                     ^          
  E  E  E  E  Q    E  S  S    E  E  E  E  Q    Q        E  E  E  E  Q    Q     
--0-----------0-------2p-0-|-------------------------|------------------------|
-----------0--0------------|--3----------------------|------------------------|
--------2-----2------------|--------0--2--4----4~----|--2--------2--2----2----|
-----2---------------------|-----0-------------------|--------4-----4---------|
--0-----------x----0-------|--x-----------x----------|--x--4--------4---------|
--x-----------x------------|--3-----------x----------|--2-----------x---------|


                                       ^                                      
  Q    E  E  Q    Q        E  E  E  E  Q.     S  S    E  E  E  E  Q    Q      
------------------------|--0-----------0------2p-0-|-------------------------|
--3---------------------|-----------0--0-----------|--3----------------------|
----------2--4----4~----|--------2-----2-----------|--------0--2--4----4~----|
-------4----------------|-----2--------------------|-----0-------------------|
--2----------x----------|--0-----------------------|-------------------------|
--x----------x----------|--------------------------|--3----------------------|


  E  E  E  E  Q    Q       E  E  E  E  E  E  E  E     E  E  E  E  Q    Q     
------------------------|--------------------------|------------------------|
------------------------|--0-----------------------|------------------------|
--2--------2--2----2----|--------------------------|------------------------|
--------4-----4---------|--------------------------|------------------------|
-----4------------------|--2--2--2--2--2--2--2--2--|--2--2--2--2--2----2----|
--2---------------------|--x-----------x-----------|--x-----------x---------|


    E  E  E  E  E  E  E  E     E  E  E  E  E  E  E  E     
|---------------------------|---------------------------||
|---------------------------|---------------------------||
|*--------------------------|--------------------------*||
|*--------0--------2--------|--------------------------*||
|---2--4-----2--4-----x-----|-----2--4-----2-----x------||
|---------x-----------5--5--|--5-----x--5-----0--0--0---||


   E  E  E  E  E  E  E  E     E  E  E  E  E  E  E  E   
---0-----------------7-----|--5-----------2-----------|
---------------------------|--------------------------|
*--------------------------|--------------------------|
*--------0--------2--------|--------------------------|
---2--4-----2--4-----x-----|-----2--4--x--2-----x-----|
---------x-----------5--5--|--5--------5-----0--0--0--|


  E  E  E  E  E  E  E  E     E  E  E  E  E  E  E  E     
--3-----------------5-----|--0------------------------||
--------------------------|---------------------------||
--------------------------|--------------------------*||
--------0--------2--------|--------------------------*||
--2--4-----2--4-----x-----|-----2--4-----2-----x------||
--------x-----------5--5--|--5-----x--5-----0--0--0---||


           T                                            
  E  E  E  E  E  E  E  E     E  E  E  E  E  E  E  E     
--3-----2--0--------------|--0------------------------||
--------------3-----3-----|---------------------------||
--------------------------|--------------------------*||
--------0--------2--x-----|--------------------------*||
--2--4--x--2--4-----0--0--|--0--2--4--0--2-----x------||
--------------------------|--------x--------0--0--0---||


  E  E  E  E  E  E  E  E     E  E  E  E  E  E  E  E     W                  
--------------------------|--------------------------|-------------------||
--------------------------|--------------------------|-------------------||
--------------------------|--------------------------|-------------------||
--------0--------2--------|--------------------------|--x----------------||
--2--4-----2--4-----x-----|-----2--4-----2-----x-----|--2----------------||
--------x-----------5--5--|--5-----x--5--x--0--0--0--|--0----------------||


Login or Register to remove this ad.