Ads

The Wolven Storm (The Witcher 3: Wild Hunt) Guitar Tab

Submitted: Jul 07, 2015 by IkuinenOnni

4.42857
Average: 4.4 (7 votes)
Download | Listen
Game: The Witcher 3: Wild Hunt
Composer(s): Marcin PrzybyƂowicz, Mikolai Stroinski, Percival
Style: Arrangement, Fingerstyle

Click here for a video example.

AutoScroll: Slow | Medium | Fast
E |--1--0--1--0--1--0--1--0----|--1-------------------------|
B |--------3-----3-----3-------|--3-------------------------|
G |-----2-----2-----2-----2----|-----2----------------------|
D |--0-------------------------|--------2--3--0-----3-------|
A |----------------------------|----------------------------|
E |----------------------------|----------------------------|

--1--0--1--0--1--0--1--0----|
-----------1--3-------------|
--------3-------------------|
-----3----------------------|
--1-------------------------|
----------------------------|

--1-----------------------------------------------1--3-----------------------1--
--3--------------------------------------------------------------1--------------
--------------------------2--------------------------------------------------0--
--------------------------------------------------------------------------------
-----------------------------------------------------3--------------------------
--------------------------------------------------------------------------------

---------0-------------|--1--0--1--0--1--0--1--0----|
---------1-------------|--------3-----3-----3-------|
-----------------------|-----2-----2-----2-----2----|
-----------------------|--0-------------------------|
-----------------------|----------------------------|
-----------------------|----------------------------|

--1-------------------------|--1--0--1--0--1--0--1--0----|
--3-------------------------|-----------1--3-------------|
-----2----------------------|--------3-------------------|
--------2--3--0-----3-------|-----3----------------------|
----------------------------|--1-------------------------|
----------------------------|----------------------------|

--1-----------0--------5----|--5--------5--3--------0----|
--3-----------3-------------|--------3-----------3-------|
--------2-----0-------------|-----2-----------2----------|
----------------------------|--0-----------0-------------|
--------------3-------------|----------------------------|
----------------------------|----------------------------|

--1--0--1-----0--------5----|--5-----8-----3-----5-------|
--------3-------------------|--------------------3-------|
-----2----------------------|-----2-----------2----------|
--0-----------0-------------|--0-----------0-------------|
----------------------------|----------------------------|
----------------------------|----------------------------|

--3-----0--1--3-----5-------|-----1--0--1--0-------------|
--------3-----------3-------|-----------1--3-----3-------|
-----2-----------2----------|--------3-------------------|
--0-----------0-------------|-----3----------------------|
----------------------------|--1-------------------------|
----------------------------|----------------------------|

-----1--0--1--3-------------|--1--0--1--0--1--0--1--0----|
--------------3-------------|--------3-----3-----3-------|
--------3-----------0-------|-----2-----2-----2-----2----|
-----2-----3----------------|--0-------------------------|
--0-------------------------|----------------------------|
----------------------------|----------------------------|

--3-----1--0-----------0----|--1--------------0--1--3----|
--3-----------3-----3-------|--------------3-------------|
-----2----------------------|-----2-----------2--2-------|
--------2--3--0-------------|--0-----------0-------------|
----------------------------|--------0-------------------|
----------------------------|----------------------------|

--5--------------------0----|--1-----1--0--3-----1--0----|
--------3-----------3-------|--------3-----------3-------|
-----2-----------2----------|----------------------------|
--0-----------0-------------|-----3-----------3----------|
--------0-----------0-------|--1-----------1-------------|
----------------------------|----------------------------|

--1--------------------0----|--1--------------0--1--3----|
--------3-----------3-------|--------------3-------------|
----------------------------|-----2-----------2--2-------|
-----3--0--------3--0-------|--0-----------0-------------|
--1-----------1-------------|--------0-------------------|
----------------------------|----------------------------|

--5-----8-----3-----5-------|--3-----0--1--3-----5-------|
----------------------------|--------3-----------3-------|
-----2-----------2----------|----------------------------|
--0-----3-----0-----3-------|-----3-----------3--0-------|
----------------------------|--1-----------1-------------|
----------------------------|----------------------------|

--3--1--0--1--0-------------|--5--5--------5--3----------|
----------------------------|-----------3-----------3----|
--------2-----2-------------|----------------------------|
-----2-----2----------------|-----0-----------0----------|
--0-------------------------|----------------------------|
----------------------------|----------------------------|

--0--1--0--1-----0----------|--5--5-----8-----3-----5L---|
-----------3----------------|-----------------------3L---|
--------2-------------------|--------2-----------2-------|
-----0-----------0----------|-----0-----------0----------|
----------------------------|----------------------------|
----------------------------|----------------------------|

--5--3-----0--1--3-----5L---|--5-----1--0--1--0----------|
--3--------3-----------3L---|--3-----------1--3-----3L---|
--------2-----------2-------|-----------3----------------|
-----0-----------0----------|--------3-------------------|
----------------------------|-----1----------------------|
----------------------------|----------------------------|

--------1--0--1--3----------|-----1--0--1--0--1--0--1----|
--3--------------3----------|-----------3-----3-----3----|
-----------3-----------0L---|--0-----2-----2-----2-------|
--------2-----3-------------|-----0----------------------|
-----0----------------------|----------------------------|
----------------------------|----------------------------|

--0--3-----1--0-------------|--0--1--------------0--1----|
-----3-----------3-----3----|-----------------3----------|
--2-----2-------------------|--------2-----------2--2----|
-----------2--3--0----------|-----0-----------0----------|
----------------------------|-----------0----------------|
----------------------------|----------------------------|

--3--5----------------------|--0--1-----1--0--3-----1----|
-----------3-----------3----|-----------3-----------3----|
--------2-----------2-------|----------------------------|
-----0-----------0----------|--------3-----------3-------|
-----------0-----------0----|-----1-----------1----------|
----------------------------|----------------------------|

--0--1----------------------|--0--1--------------0--1----|
-----------3-----------3----|-----------------3----------|
----------------------------|--------2-----------2--2----|
--------3--0--------3--0----|-----0-----------0----------|
-----1-----------1----------|-----------0----------------|
----------------------------|----------------------------|

--3--5-----8-----3-----5L---|--5--3-----0--1--3-----5L---|
----------------------------|-----------3-----------3L---|
--------2-----------2-------|----------------------------|
-----0-----3-----0-----3L---|--3-----3-----------3--0L---|
----------------------------|-----1-----------1----------|
----------------------------|----------------------------|

--5--3--1--0--1--0----------|-----1--0--1--0--1--0--1----|
--3-------------------------|-----------3-----3-----3----|
-----------2-----2----------|--------2-----2-----2-------|
--0-----2-----2-------------|-----0----------------------|
-----0----------------------|----------------------------|
----------------------------|----------------------------|

--0--1-----------------1L---|--1--1--0--1--0--1--0--1----|
-----3----------------------|--------------1--3--3-------|
--2-----2-------------------|-----------3----------------|
-----------2--3--0-----3L---|--3-----3-------------------|
----------------------------|-----1----------------------|
----------------------------|----------------------------|

--0--1-----------0L---------|--0-------------------------|-------|----||
-----3-----------3L---------|--3--3L----------3L---------|--3----|----||
-----------------0L---------|--0--2L----------2L---------|--2----|----||
----------------------------|-----0L----------0L---------|--0----|----||
-----------------3L---------|--3-------------------------|-------|----||
----------------------------|----------------------------|-------|----||
Login or Register to remove this ad.