The Vagabond (The Witcher 3: Wild Hunt) Guitar Tab

Submitted: Jan 24, 2017 by IkuinenOnni (Last updated: Jan 26, 2017)

5
Average: 5 (5 votes)
Download | Listen
Game: The Witcher 3: Wild Hunt
Composer(s): Marcin PrzybyƂowicz, Mikolai Stroinski, Percival
Style: Arrangement, Fingerstyle

This song is also called Kaer Morhen Valley

AutoScroll: Slow | Medium | Fast
The Vagabond

      Q    E  E  E  E     Q    E  E  E  E     Q    E  E  E  E   
E||--------------------|-------------------|-------------------|
B||--------------------|-------------------|-------------------|
G||*--2----2-----2-----|--3----3-----3-----|--0----0-----0-----|
D||*--0-------0-----0--|--0-------0-----0--|--0-------0-----0--|
A||--------------------|-------------------|-------------------|
E||--------------------|-------------------|-------------------|


  Q    E  E  E  E       Q    E  E  E  E     S  S E  E  E  E  E   
--------------------||--5----------5-----|--3h-5-3--L--L--0-----|
--------------------||--3----3-----3-----|----------------------|
--2----2-----2-----*||-------2-----------|----------------0-----|
--0-------0-----0--*||--0-------0-----0--|-------------------0--|
--------------------||-------0-----0-----|--1-------1-----1-----|
--------------------||-------------------|----------------------|


  S  S E  E  E  E  S  S    Q    E  E  E  E     S  E.  E  E  E  E   
--1p-0-------------0h-1-|-------------------|---------------5-----|
-------3----------------|--3-------------1--|--1h-3---------3-----|
----------0-----0-------|--2----------2-----|---------------------|
--0----------0-----0----|----------0-----0--|---------3-----------|
------------------------|--0----0-----0-----|--1--L------1-----1--|
------------------------|-------------------|---------------------|


  E  S S  E  Q    S S    S  S E  E  S  S E  E     S S Q    E  E  E   
--3----5p-0---------0-|--1h-3-1-----0h------0--|--------------------|
------------------3---|----------------3-1-----|--1-----------1-----|
-------0--------------|--0-------0-------------|--2-----------------|
--2-------------------|------------------0-----|----2---------2-----|
-----1-------1----1---|--3----------0-------0--|------0----0-----0--|
----------------------|------------------------|--------------------|


  E  E  E  S S E  E     Q    E   E  E   E     E  E  E  E  E  E   
-----0--1----3-5-----|---------------------|-----0--1-----5-----|
--1------------3--6--|--------------0h--1--|--3--------3-----6--|
--------2--0---2-----|--0----0h--2--0---L--|--2--------0--2-----|
--0-----0------0-----|--0----0------0---L--|--0-----0-----0-----|
---------------------|---------------------|--0-----0-----------|
---------------------|--0----0------0------|--------------------|


  Q    Q    Q       E  E  E  E  E  E     E  E  E  E  E  S  S  
-----------------|--------------5-----|--3-------------------|
-----------------|--3-----------3-----|--5-----5--------3h-5-|
--2----2----2----|--2-----2-----3-----|--5-----5-----5-------|
--0----2----2----|-----0-----0-----0--|-----0--5--0-----0----|
--0----0----3----|--------------------|----------------------|
-----------------|--------------------|----------------------|


  E  E  E  E  E  E     S  S  E  E  E  E  E     Q    E  E  E  E   
--1-----------3-----|--0-----------------0--|-------------5-----|
-----3--------3-----|--1h-2p-1--------------|-------3-----3-----|
-----3-----3--3-----|--0--------0--------2--|-------2-----2-----|
--0-----0--------0--|--0--------0--0--2-----|--0-------0-----0--|
--------------------|-----------------------|--0----0-----0-----|
--------------------|-----------------------|-------------------|


  E  E  E  E  E  S S    S  S E  E  E  E  E     Q    Q    E  E   
--3-----0----------0-|--1h-3-1--------0-----|------------------|
--1--------------3---|-------------------3--|--1----1-------1--|
--2-----------2------|----------2-----2-----|--2----2----------|
--------2--------2---|----------0--------2--|-------2----2-----|
--3--0-----3---------|--1----------1--------|--3---------3-----|
---------------------|-------1--------------|------------------|


  Q    E  E  E  E     Q    E  E  E  E     Q    E  E  E  E     Q    E  E  E  E   
-------------------|-------------------|-------------------|-------------------|
--3----------------|-------------------|-------------------|-------------------|
--2----2-----2-----|--3----3-----3-----|--0----0-----0-----|--2----2-----2-----|
--0-------0-----0--|--0-------0-----0--|--0-------0-----0--|--0-------0-----0--|
--0----------------|-------------------|-------------------|-------------------|
-------------------|-------------------|-------------------|-------------------|


  Q    E  E  E  E     Q.     E  E  E     Q    E  E  E  E     Q    E  E  E  E   
-------------------|------------------|-------------------|-------------------|
-------------------|------------------|-------------------|-------------------|
--2----2-----2-----|------------3-----|--0----0-----0-----|--2----2-----2-----|
--0-------0-----0--|--0------0-----0--|--0-------0-----0--|--0-------0-----0--|
-------------------|--1---------------|-------------------|-------------------|
-------------------|------------------|-------------------|-------------------|


  S E.  S E.  Q       Q.     E  E  E     E  E  Q    Q       E  E  E  E  E  E   
----5-----3---1----|--0---------1-----|------------------|--1--------1--3-----|
--3-----3-----3----|------------1-----|--3---------------|--------------3-----|
--2-----0----------|--3---------------|--0---------------|--3-----------2-----|
--0-----------3----|--3---------------|--0---------------|--3-----3--------0--|
--------3----------|---------1-----3--|--1-----0---------|-----1-----3--------|
-------------------|--3---------------|-----3-------3----|--------------------|


  E  S S E  E  E  E     H        Q       E  S S E  E  E  E     Q    Q.     E   
--1------------------|----------------|---------------------|-----------------|
--3------3-----3-----|----------------|--3------3-----------|-------0---------|
--2------------------|----------------|--2------------------|--------------0--|
--0----0----0-----0--|----------------|--0----0----0-----0--|-----------------|
-----0---------0-----|----------------|-----0---------0-----|--3--------------|
---------------------|--3--------0----|--1------------------|--0--------------|


  E  E  E  S S Q       Q    E.  S  E  E     E  E  E  E  Q     
-----0--1----3-5----|--3--------1p-0-----|-----0--1-----5----|
--3-----3--3--------|--1--------------1--|--3--------3-------|
--2-----------------|--0-----------------|--2----------------|
--0--0--0-----------|--0----0------------|--3-----0----------|
--0-----------------|--------------------|--1----------------|
--------------------|--------------------|-------------------|


  Q    E.   S E  E     E  E   E  S  S  E  E     Q    Q    Q     
--8--------10-7--3--|--5-----10--------------|-----------------|
--5-----------------|--3--3------5h-6p-5--3--|--1---------1----|
--5-----------------|--2---------------------|--0--------------|
--5-----------------|--0---------------------|--0----2---------|
--------------------|------------5-----------|--0----3---------|
-------0------------|---------6--------------|-----------------|


  E  S S E  E  E  E     H        Q       Q.     S  S E  E   
---------------------|----------------|---------5h-6-3--0--|
--3------3-----------|----------------|--3-----------------|
--2------------------|----------------|--------------0-----|
--0----0----0-----0--|----------------|--------------------|
-----0---------0-----|----------------|--1-----------------|
--1------------------|--3--------0----|--------------------|


  E  S  S Q.     E     E  E  E  S  S E  E     S  S  E  Q    Q     
--1--1h-3-----------|-----------0h-1-0-----|--3h-5p-3--1----0----|
----------3------1--|--3-----3----------3--|---------------------|
--------------------|--3-----3-------------|--0------------------|
-----3--------------|-----0----------------|---------------------|
--1-----------------|----------------1-----|----------------3----|
--------------------|--3-------------------|----------------3----|


  Q    E  E  E  E     Q    E  E  E  E     Q    E  E  E  E     H.             
-------------------|-------------------|-------------------|---------------||
-------------------|-------------------|-------------------|---------------||
--2----2-----2-----|--3----3-----3-----|--0----0-----0-----|--2------------||
--0-------0-----0--|--0-------0-----0--|--0-------0-----0--|--0------------||
-------------------|-------------------|-------------------|--0------------||
-------------------|-------------------|-------------------|---------------||




Duration Legend
---------------
W - whole
H - half
Q - quarter
E - 8th
S - 16th
T - 32nd
X - 64th
. - note dotted
|-n-|  - n-tuplets


Tablature Legend
----------------
L - tied note
x - dead note
NH - natural harmonic
h - hammer on
p - pull off
b - bend
< - fade in
^ - brush up
v - brush down
Login or Register to remove this ad.