Silver For Monsters (The Witcher 3: Wild Hunt) Guitar Tab

Submitted: Mar 07, 2017 by IkuinenOnni

5
Average: 5 (1 vote)
Download | Listen
Game: The Witcher 3: Wild Hunt
Composer(s): Marcin PrzybyƂowicz, Mikolai Stroinski, Percival
Style: Arrangement, Fingerstyle

AutoScroll: Slow | Medium | Fast
                              Silver For Monsters                               


Nylon Guitar
      ^      v  ^  v  ^          v  ^  v  ^    ^  v     ^    v  ^    v  ^     
      Q.     E  E  E  Q       E  E  E  E  Q    E  E     Q    E  Q    E  Q     
E||------------------------|-------------------------|-----------------------|
B||---4------4--4--4--3----|--L--3--3--3--3----3--3--|-----------------------|
G||*--2------2--2--2--2----|--L--2--2--2--2----2--2--|--3----3--3----3--2----|
D||*--0------0--0--0--0----|--L--0--0--0--0----0--0--|--0----0--0----0--0----|
A||------------------------|-------------------------|-----------------------|
D||------------------------|-------------------------|-----------------------|


     ^  v  ^  v    ^  v     ^      v  ^  v  ^          v  ^  v  ^    ^  v   
  E  E  E  E  Q    E  E     Q.     E  E  E  Q       E  E  E  E  Q    E  E   
-------------------------|-----------------------|-------------------3--3--|
-------------------------|--4------4--4--4--3----|--L--3--3--3--3----3--3--|
--L--2--2--2--2----2--2--|--2------2--2--2--2----|--L--2--2--2--2----2--2--|
--L--0--0--0--0----0--0--|--0------0--0--0--0----|--L--0--0--0--0----0--0--|
-------------------------|-----------------------|-------------------------|
-------------------------|-----------------------|-------------------------|


  ^  v  ^  v    v  ^          ^  v  ^  v    ^  v       ^      v  ^  v  ^     
  E  E  E  Q    E  Q       E  E  E  E  Q    E  E   3x  Q.     E  E  E  Q     
--3--3--3--3----3--2----|--L--2--2--2--2----2--2---||-----------------------|
--3--3--3--3----3--3----|--L--3--3--3--3----3--3---||--4------4--4--4--3----|
--2--2--2--2----2--2----|--L--2--2--2--2----2--2--*||--2------2--2--2--2----|
--0--0--0--0------------|-------------------0--0--*||--0------0--0--0--0----|
------------------------|--------------------------||-----------------------|
------------------------|--------------------------||-----------------------|


     v  ^  v  ^    ^  v     ^    v  ^    v  ^          ^  v  ^  v    ^  v   
  E  E  E  E  Q    E  E     Q    E  Q    E  Q       E  E  E  E  Q    E  E   
-------------------------|-----------------------|-------------------------|
--L--3--3--3--3----3--3--|-----------------------|-------------------------|
--L--2--2--2--2----2--2--|--3----3--3----3--2----|--L--2--2--2--2----2--2--|
--L--0--0--0--0----0--0--|--0----0--0----0--0----|--L--0--0--0--0----0--0--|
-------------------------|-----------------------|-------------------------|
-------------------------|-----------------------|-------------------------|


  ^      v  ^  v  ^          v  ^  v  ^    ^  v     ^      v  ^  v  ^     
  Q.     E  E  E  Q       E  E  E  E  Q    E  E     Q.     E  E  E  Q     
-----------------------|-------------------------|-----------------------|
--4------4--4--4--3----|--L--3--3--3--3----3--3--|--3------3--3--3--3----|
--2------2--2--2--2----|--L--2--2--2--2----2--2--|--2------2--2--2--2----|
--0------0--0--0--0----|--L--0--0--0--0----0--0--|--0--------------------|
-----------------------|-------------------------|-----------------------|
-----------------------|-------------------------|-----------------------|


     v  ^  v  ^    v        ^       v     v   ^   v      ^     ^   v  ^         
  E  E  E  E  Q    Q        Q.      Q     E   E   E      Q     E   E  H         
------------------------|--10------10----10--10--10--|--10----10--10--8--------|
--L--3--3--3--3----3----|--10------10----10--10--10--|--10----10--10--8--------|
--L--2--2--2--2----2----|---7-------7-----7---7---7--|---7-----7---7--7--------|
------------------------|---0-------0-----0---0---0--|---0-----0---0--0--------|
------------------------|----------------------------|-------------------------|
------------------------|----------------------------|-------------------------|


  ^      v    v  ^  v     ^    ^  v  ^           ^      v    v  ^  v   
  Q.     Q    E  E  E     Q    E  E  H           Q.     Q    E  E  E   
--5------5----5--5--5--|--5----5--5--3--------|--5------5----5--5--5--|
--3------3----3--3--3--|--3----3--3--3--------|--3------3----3--3--3--|
--2------2----2--2--2--|--2----2--2--0--------|--2------2----2--2--2--|
--0--------------------|--0----------0--------|--0--------------------|
--0--------------------|----------------------|-----------------------|
-----------------------|----------------------|-----------------------|


  ^    ^  v  ^    v       ^      v    v  ^  v                             
  Q    E  E  Q    Q       Q.     Q    E  E  E     E  E  E  E  Q    E  E   
--5----5--5------------|-----------------------|-------------------------|
--3----3--3------------|-----------------------|--3----------------------|
--2----2--2--2----3----|--2------2----2--2--2--|--0-----2-----2----------|
--0----------0----0----|--0------0----0--0--0--|-----------0-------0--1--|
-------------0----1----|--0------0----0--0--0--|--0--0--------0-------3--|
-----------------------|-----------------------|-------------------------|


                             |----3----|                  
    Q    E  E  E  E  Q       Q    Q    Q    Q    E  E   3x
|-------------------------|-----------------------------||
|-------------------------|-----------------------------||
|*------------------------|--3----3----3----0----------*||
|*--4----0--4--1--0--0----|--0----1----4----0----0--1--*||
|--------------0--0--3----|--1----1----1------------3---||
|---0-------0-------------|-----------------------------||


                           |----3----|                
  Q    E  E  E  E  Q       Q    Q    Q    Q    E  E   
------------------------|----------------------------|
------------------------|----------------------------|
------------------------|--3----3----3----0----------|
--4----0--4--1--0--0----|--0----1----4----0----0-----|
-------------0--0--3----|--1----1----1------------3--|
--0-------0-------------|----------------------------|


  E   E  E  E  E  E  E   E     E   E  E  E  E  E  E   E   
----------------------------|----------------------------|
---------------1-----1h--3--|---------------1-----1h--3--|
--0h--2--2--0-----0--2------|--0h--2--2--0-----0---------|
----------------------------|--0-------------------------|
---------------------0------|------------0--------0------|
--0---------0---------------|----------------------------|


  E   E  E  E  E  E  E   E     E   E  E  E  E  E  E   E   
----------------------------|----------------------------|
---------------1-----1h--3--|---------------1-----1h--3--|
--0h--2--2--0-----0---------|--0h--2--2--0-----0---------|
----------------------------|--0-------------------------|
------------0--------0------|------------0--------0------|
--0-------------------------|----------------------------|


  E   E  E  E  E  E  E   E     E   E  E  E  E  E  E   E   
----------------------------|----------------------------|
---------------1-----1h--3--|---------------1-----1h--3--|
--0h--2--2--0-----0---------|--0h--2--2--0-----0---------|
----------------------------|--3-------------------------|
---------------------3------|------------3--------3------|
--3---------3---------------|----------------------------|


  E   E  E  E  E  E  E   E     E   E  E  E  E  E  E   E   
----------------------------|----------------------------|
---------------1-----1h--3--|---------------1-----1h--3--|
--0h--2--2--0-----0---------|--0h--2--2--0-----0---------|
----------------------------|--3-------------------------|
------------3--------3------|------------3--------3------|
--3-------------------------|----------------------------|


  E   E  E  E  E  E  E   E       E   E  E  E  E  E  E   E   3x
----------------------------||------------------------------||
---------------1-----1h--3--||----------------1-----1h--3---||
--0h--2--2--0-----0---------||*--0h--2--2--0-----0---------*||
---------------------3------||*------------3--------3------*||
--1---------1---------------||---1--------------------------||
----------------------------||------------------------------||


  E   E  E  E  E  E  E   E     E   E  E  E  E  E  E   E   
----------------------------|----------------------------|
---------------1-----1h--3--|---------------1-----1h--3--|
--0h--2--2--0-----0---------|--0h--2--2--0-----0---------|
---------------------0------|------------0--------0------|
----------------------------|----------------------------|
--5---------5---------------|--5-------------------------|


  E   E  E  E   E  E  E   E     E  E   E  E  E  E  E  E   
-----------------------------|---------------------------|
---------1---------1---------|--1---------1--------------|
--0h--2-----0h--2-----0h--2--|-----0h--2-----0--------0--|
------------0----------------|---------------------4-----|
-----------------------------|-----3---------------------|
--5-------------------3------|---------------5-----------|


    Q    E  E  E  E  Q       E  E  E  E  Q    E  E     Q    E  Q    E  Q     
|-------------------------|-------------------------|-----------------------|
|-------------------------|-------------------------|-----------------------|
|*--2----0--2-----0--2----|--0--2-----0--2----3--2--|--0--------------------|
|*-------0-----4--0-------|-----0--4--0-------0-----|-------4--4----1--1----|
|--------------0----------|--0-----0----------------|-------1--1----0--0----|
|---0-------0--------0----|--------------0----------|--0--------------------|


  E  Q    E  E  E  E  E       E  Q    E  E  E  E  E   
--------------------------||-------------------------|
--------------------------||-------------------------|
----------------------0--*||-------------------------|
--0--0-------0-----4-----*||--0--0-------0-----0--1--|
----------3---------------||----------3-----------3--|
--1--1--------------------||--1--1-------------------|


                             |----3----|                  
    Q    E  E  E  E  Q       Q    Q    Q    Q    E  E   3x
|-------------------------|-----------------------------||
|-------------------------|-----------------------------||
|*------------------------|--3----3----3----0----------*||
|*--4----0--4--1--0--0----|--0----1----4----0----0--1--*||
|--------------0--0--3----|--1----1----1------------3---||
|---0-------0-------------|-----------------------------||


                           |----3----|                
  Q    E  E  E  E  Q       Q    Q    Q    Q    E  E   
------------------------|----------------------2--3--|
------------------------|----------------------------|
------------------------|--3----3----3----0----------|
--4----0--4--1--0--0----|--0----1----4----0----0-----|
-------------0--0--3----|--1----1----1---------------|
--0-------0-------------|----------------------------|


    Q    E  E  E  E  Q       E  E  E  E  Q    E  E     Q    E  Q    E  Q     
|---5----3--5--2--3--5----|--3--5--2--3--5----6--5--|--3----2--2------------|
|-------------------------|-------------------------|---------------4--4----|
|*--2----------------2----|-----2--------2----3--2--|--0--------------------|
|*-------0--------0-------|-----0-------------0-----|-------0--0----1--1----|
|--------------0----------|--0-----0----------------|--0----1--1------------|
|---0-------0--------0----|--------------0-------0--|---------------0--0----|


  E  Q    E  E  E  E  E       E  Q    E  E  E  E  E   
-------------------2--3---||-------------------------|
--3--3----1--3------------||--3--3----1--3-----3--4--|
-------------------------*||-------------------------|
--0--0-------0-----0-----*||--0--0-------0-----0--1--|
----------3--3------------||----------3--3-----------|
--3--3----3---------------||--3--3----3--------------|


                             |----3----|                  
    Q    E  E  E  E  Q       Q    Q    Q    Q    E  E   3x
|---2-------2-------------|------------2----------------||
|--------4-----4--3--1----|--3----4---------3----3--4---||
|*------------------------|--3----3----3----0----------*||
|*-------1-----1--0-------|--0----1---------0----0--1--*||
|--------------------3----|--1----1----1----------------||
|---0-------0-------------|-----------------------------||


                                                      ^      v  ^  v  ^     
                           |----3----|                                      
  Q    E  E  E  E  Q       Q    Q    Q    H           Q.     E  E  E  Q     
--2-------2-------------|------------2-------------|-----------------------|
-------4-----4--3--1----|--3----4---------3--------|--4------4--4--4--3----|
------------------------|--3----3----3----0--------|--2------2--2--2--2----|
-------1-----1--0-------|--0----1---------0--------|--0------0--0--0--0----|
-------------------3----|--1----1----1-------------|-----------------------|
--0-------0-------------|--------------------------|-----------------------|


     v  ^  v  ^    ^  v     ^    v  ^    v  ^          ^  v  ^  v    ^  v   
  E  E  E  E  Q    E  E     Q    E  Q    E  Q       E  E  E  E  Q    E  E   
-------------------------|-----------------------|-------------------------|
--L--3--3--3--3----3--3--|-----------------------|-------------------------|
--L--2--2--2--2----2--2--|--3----3--3----3--2----|--L--2--2--2--2----2--2--|
--L--0--0--0--0----0--0--|--0----0--0----0--0----|--L--0--0--0--0----0--0--|
-------------------------|-----------------------|-------------------------|
-------------------------|-----------------------|-------------------------|


  ^      v  ^  v  ^          v  ^  v  ^    ^  v     ^                  
  Q.     E  E  E  Q       E  E  E  E  Q    E  E     W                  
-----------------------|-------------------------|-------------------||
--4------4--4--4--3----|--L--3--3--3--3----3--3--|--3----------------||
--2------2--2--2--2----|--L--2--2--2--2----2--2--|--2----------------||
--0------0--0--0--0----|--L--0--0--0--0----0--0--|--0----------------||
-----------------------|-------------------------|-------------------||
-----------------------|-------------------------|-------------------||




Duration Legend
---------------
W - whole
H - half
Q - quarter
E - 8th
S - 16th
T - 32nd
X - 64th
. - note dotted
|-n-|  - n-tuplets


Tablature Legend
----------------
L - tied note
x - dead note
g - grace note
(n) - ghost note
> - accentuded note
NH - natural harmonic
AH - artificial harmonic
TH - tapped harmonic
SH - semi harmonic
PH - pitch harmonic
h - hammer on
p - pull off
b - bend
br - bendRelease
pb - preBend
pbr - preBendRelease
brb - bendReleaseBend
\n/ - tremolo bar dip
\n - tremolo bar dive
-/n - tremolo bar Release up
/n\ - tremolo bar inverted dip
/n - tremolo bar return
-\n - tremolo bar Release down
S - shift slide
s - legato slide
/ -  slide into from below or out of upwards
\ -  slide into from above or out of downwards
~ - vibrato
W - wide vibrato
tr - trill
TP - tremolo picking
T - tapping
S - slap
P - pop
< - fade in
^ - brush up
v - brush down
Login or Register to remove this ad.