Silver for Monsters (The Witcher 3: Wild Hunt) Guitar/Ukulele Tab

Original song by Percival Schuttenbach.

What I did here is the exact transcription of the vocal part, and then added/created from zero everything else.
Viewing GP/video for rythm/feeling highly recommended.

No capo, all instruments 1 step downtune. Uke has particular tuning

Tempo 90

Ukulele intro

NOTICE THE TUNING

 
A |--6--------6--5--3--5--------5--5--5--5-------------|
D |--0--------0--0--0--0--------0--0--0--0-----5-------|
D |--0--------0--0--0--0--------0--0--0--0-----0-------|
G |----------------------------------------------------|


--1--------1--1--0--0--------0--0--0--0-----0-------|
--0--------0--0--0--0--------0--0--0--0-----0-------|
--0--------0--0--0--0--------0--0--0--0-----0-------|
----------------------------------------------------|


--6--------6--5--3--5--------5--5--5--5-----5-------|
--0--------0--0--0--0--------0--0--0--0-----0-------|
--0--------0--0--0--0--------0--0--0--0-----0-------|
----------------------------------------------------|


--10----10-10-10-10-9-----9--9--9--9--9--9--9--9----|
--0-----0--0--0--0--0-----0--0--0--0--0--0--0--0----|
--0-----0--0--0--0--0-----0--0--0--0--0--0--0--0----|
----------------------------------------------------|


--6--------6--5--3--5--------5--5--5--5-------------|
--0--------0--0--0--0--------0--0--0--0-----5-------|
--0--------0--0--0--0--------0--0--0--0-----0-------|
----------------------------------------------------|


--1--------1--1--0--0--------0--0--0--0-----0-------|
--0--------0--0--0--0--------0--0--0--0-----0-------|
--0--------0--0--0--0--------0--0--0--0-----0-------|
----------------------------------------------------|


--6--------6--5--3--5--------5--5--5--5-----5-------|
--0--------0--0--0--0--------0--0--0--0-----0-------|
--0--------0--0--0--0--------0--0--0--0-----0-------|
----------------------------------------------------|


--5--------5--5--5--5--------5--5--5--5-----5-------|----|----|----|----|----|
--0--------0--0--0--0--------0--0--0--0-----0-------|----|----|----|----|----|
--0--------0--0--0--0--------0--0--0--0-----0-------|----|----|----|----|----|
----------------------------------------------------|----|----|----|----|----| 

Acoustic intro/outro

Starts right after uke intro

D |----------------|----------------|----------------|----------------|
A |----------------|----------------|----------------|----------------|
F |----------------|----------------|----------------|----------------|
C |----------------|----------------|----------------|----------------|
G |----------------|----------------|----------------|----------------|
D |----------------|----------------|----------------|----------------|


----------------|----------------|----------------|----------------|
----------------|----------------|----------------|----------------|
----------------|----------------|----------------|----------------|
----------------|----------------|----------------|----------------|
----------------|----------------|----------------|----------------|
----------------|----------------|----------------|----------------|


----------------------------------------------------|
----------------------------------------------------|
----------------------------------------------------|
----------------------------------------------------|
--8--------8--7--5--7--------7--7--7--7-----0-------|
--0--------0--0--0--0--------0--0--0--0-----0-------|


----------------------------------------------------|
----------------------------------------------------|
----------------------------------------------------|
----------------------------------------------------|
--3--------3--3--2--2--------2--2--2--2-----2--2----|
--0--------0--0--0--0--------0--0--0--0-----0--0----|


----------------------------------------------------|
----------------------------------------------------|
----------------------------------------------------|
----------------------------------------------------|
--8--------8--7--5--7--------7--7--7--7-----7--7----|
--0--------0--0--0--0--------0--0--0--0-----0--0----|


----------------------------------------------------|
----------------------------------------------------|
----------------------------------------------------|
--7-----7--7--7--7--6-----6--6--6--6--6--6--6--6----|
--0-----0--0--0--0--0-----0--0--0--0--0--0--0--0----|
----------------------------------------------------|


----------------------------------------------------|
----------------------------------------------------|
----------------------------------------------------|
----------------------------------------------------|
--8--------8--7--5--7--------7--7--7--7-----0-------|
--0--------0--0--0--0--------0--0--0--0-----0-------|


----------------------------------------------------|
----------------------------------------------------|
----------------------------------------------------|
----------------------------------------------------|
--3--------3--3--2--2--------2--2--2--2-----2--2----|
--0--------0--0--0--0--------0--0--0--0-----0--0----|


----------------------------------------------------|
----------------------------------------------------|
----------------------------------------------------|
----------------------------------------------------|
--8--------8--7--5--7--------7--7--7--7-----7--7----|
--0--------0--0--0--0--------0--0--0--0-----0--0----|


----------------------------------------------------|
----------------------------------------------------|
----------------------------------------------------|
--7-----7--7--7--7--6-----6--6--6--6--6--6--6--6----|
--0-----0--0--0--0--0-----0--0--0--0--0--0--0--0----|
----------------------------------------------------|


----------------------------------------------------|
----------------------------------------------------|
----------------------------------------------------|
----------------------------------------------------|
--8--------8--7--5--7--------7--7--7--7-----0-------|
--0--------0--0--0--0--------0--0--0--0-----0-------|


----------------------------------------------------|
----------------------------------------------------|
----------------------------------------------------|
----------------------------------------------------|
--3--------3--3--2--2--------2--2--2--2-----2--2----|
--0--------0--0--0--0--------0--0--0--0-----0--0----|


----------------------------------------------------|
----------------------------------------------------|
----------------------------------------------------|
----------------------------------------------------|
--8--------8--7--5--7--------7--7--7--7-----7--7----|
--0--------0--0--0--0--------0--0--0--0-----0--0----|


----------------------------------------------------|
----------------------------------------------------|
----------------------------------------------------|
----------------------------------------------------|
--7--------7--7--7--7--------7--7--7--7-----7--7----|
--0--------0--0--0--0--------0--0--0--0-----0--0----|


----------------------------------------------------|
----------------------------------------------------|
----------------------------------------------------|
----------------------------------------------------|
--8--------8--7--5--7--------7--7--7--7-----0-------|
--0--------0--0--0--0--------0--0--0--0-----0-------|


----------------------------------------------------|
----------------------------------------------------|
----------------------------------------------------|
----------------------------------------------------|
--3--------3--3--2--2--------2--2--2--2-----2--2----|
--0--------0--0--0--0--------0--0--0--0-----0--0----|


----------------------------------------------------|
----------------------------------------------------|
----------------------------------------------------|
----------------------------------------------------|
--8--------8--7--5--7--------7--7--7--7-----7--7----|
--0--------0--0--0--0--------0--0--0--0-----0--0----|


----------------------------------------------------|
----------------------------------------------------|
----------------------------------------------------|
--7-----7--7--7--7--6-----6--6--6--6--6--6--6--6----|
--0-----0--0--0--0--0-----0--0--0--0--0--0--0--0----|
----------------------------------------------------|


----------------------------------------------------|
----------------------------------------------------|
----------------------------------------------------|
----------------------------------------------------|
--8--------8--7--5--7--------7--7--7--7-----0-------|
--0--------0--0--0--0--------0--0--0--0-----0-------|


----------------------------------------------------|
----------------------------------------------------|
----------------------------------------------------|
----------------------------------------------------|
--3--------3--3--2--2--------2--2--2--2-----2--2----|
--0--------0--0--0--0--------0--0--0--0-----0--0----|


----------------------------------------------------|
----------------------------------------------------|
----------------------------------------------------|
----------------------------------------------------|
--8--------8--7--5--7--------7--7--7--7-----7--7----|
--0--------0--0--0--0--------0--0--0--0-----0--0----|


----------------------------------------------------|----------------|
----------------------------------------------------|----------------|
----------------------------------------------------|----------------|
----------------------------------------------------|----------------|
--7--------7--7--7--7--------7--7--7--7-----7--7----|----------------|
--0--------0--0--0--0--------0--0--0--0-----0--0----|----------------|

Acoustic fill

Just to add a little extra spice

D |----|----|----|----|----|----|----|----|----|----|----|----|-------|-------|
A |----|----|----|----|----|----|----|----|----|----|----|----|--5----|-------|
F |----|----|----|----|----|----|----|----|----|----|----|----|--4----|--4----|
C |----|----|----|----|----|----|----|----|----|----|----|----|--2----|--2----|
G |----|----|----|----|----|----|----|----|----|----|----|----|--2----|--3----|
D |----|----|----|----|----|----|----|----|----|----|----|----|--0----|--0----|

  ^       ^                            ^       ^       ^       ^     
-------|-----------7L----------7----|-------|-------|-------|-------|
--5----|--10-------9L----------9----|--5----|-------|--5----|--5----|
--4----|--9--------7L----------7----|--4----|--4----|--4----|--4----|
--2----|--7--------9L----------9----|--2----|--2----|--2----|--2----|
--2----|--7--------7L----------7----|--2----|--3----|--2----|--2----|
--0----|--0--------0L----------0----|--0----|--0----|--0----|--0----|

                                                     
----------------------------------------------------|
----------------------------------------------------|
----------------------------------------------------|
-----------7-----------------7--------------7-------|
--8-----------------7-----------------7-------------|
----------------------------------------------------|

                                                     
----------------------------------------------------|
----------------------------------------------------|
----------------------------------------------------|
-----------7-----------------6--------------6-------|
--3-----------------2-----------------2-------------|
----------------------------------------------------|

                                                     
----------------------------------------------------|
----------------------------------------------------|
----------------------------------------------------|
-----------7-----------------7--------------7-------|
--8-----------------7-----------------7-------------|
----------------------------------------------------|

                                                     
----------------------------------------------------|
----------------------------------------------------|
-----------5-----------------4--------------4-------|
--7-----------------6-----------------6-------------|
----------------------------------------------------|
----------------------------------------------------|

                                                     
----------------------------------------------------|
----------------------------------------------------|
----------------------------------------------------|
-----------7-----------------7--------------7-------|
--8-----------------7-----------------7-------------|
----------------------------------------------------|

                                                     
----------------------------------------------------|
----------------------------------------------------|
----------------------------------------------------|
-----------7-----------------6--------------6-------|
--3-----------------2-----------------2-------------|
----------------------------------------------------|

                                                     
----------------------------------------------------|
----------------------------------------------------|
----------------------------------------------------|
-----------7-----------------7--------------7-------|
--8-----------------7-----------------7-------------|
----------------------------------------------------|

                                                                      
----------------------------------------------------|----------------|
----------------------------------------------------|----------------|
----------------------------------------------------|--9--------7----|
-----------6-----------------6--------------6-------|----------------|
--7-----------------7-----------------7-------------|----------------|
----------------------------------------------------|----------------|

                                                                             
----------------|-------|----|----------------|----------------|-------|----|
-----------10---|--9----|----|--9--------10---|--12-------13---|--12---|----|
--4-------------|-------|----|----------------|----------------|-------|----|
----------------|-------|----|----------------|----------------|-------|----|
----------------|-------|----|----------------|----------------|-------|----|
----------------|-------|----|----------------|----------------|-------|----|

  ^     v  ^     v  ^     v  ^     v  ^  v  ^  v     
----------------------------------------------------|
--5-----5--5-----5--5-----5--5-----5--10-10-10-10---|
--4-----4--4-----4--4-----4--4-----4--9--9--9--9----|
--2-----2--2-----2--2-----2--2-----2--7--7--7--7----|
--2-----2--2-----2--2-----2--2-----2--7--7--7--7----|
--0-----0--0-----0--0-----0--0-----0--0--0--0--0----|

  ^     v  ^     v  ^     v  ^     v  ^  v  ^  v     
----------------------------------------------------|
--5-----5--5-----5--5-----5--5-----5--3--3--3--3----|
--4-----4--4-----4--4-----4--4-----4--2--2--2--2----|
--2-----2--2-----2--2-----2--2-----2--0--0--0--0----|
--2-----2--2-----2--2-----2--2-----2--0--0--0--0----|
--0-----0--0-----0--0-----0--0-----0--0--0--0--0----|

  ^     v  ^     v  ^     v  ^     v  ^  v  ^  v     
----------------------------------------------------|
--5-----5--5-----5--5-----5--5-----5--10-10-10-10---|
--4-----4--4-----4--4-----4--4-----4--9--9--9--9----|
--2-----2--2-----2--2-----2--2-----2--7--7--7--7----|
--2-----2--2-----2--2-----2--2-----2--7--7--7--7----|
--0-----0--0-----0--0-----0--0-----0--0--0--0--0----|

  ^     v  ^     v  ^     v  ^     v  ^  v  ^  v     
----------------------------------------------------|
--5-----5--5-----5--5-----5--5-----5--3--3--3--3----|
--4-----4--4-----4--4-----4--4-----4--2--2--2--2----|
--2-----2--2-----2--2-----2--2-----2--0--0--0--0----|
--2-----2--2-----2--2-----2--2-----2--0--0--0--0----|
--0-----0--0-----0--0-----0--0-----0--0--0--0--0----|

  ^     v  ^     v  ^     v  ^     v  ^  v  ^  v     
----------------------------------------------------|
--17----17-17----17-17----17-17----17-18-18-18-18---|
--16----16-16----16-16----16-16----16-17-17-17-17---|
--14----14-14----14-14----14-14----14-15-15-15-15---|
--14----14-14----14-14----14-14----14-15-15-15-15---|
--0-----0--0-----0--0-----0--0-----0--0--0--0--0----|

  ^     v  ^     v  ^     v  ^     v  ^  v  ^  v
----------------------------------------------------|----|----|----|----|----|
--17----17-17----17-17----17-17----17-15-15-15-15---|----|----|----|----|----|
--16----16-16----16-16----16-16----16-14-14-14-14---|----|----|----|----|----|
--14----14-14----14-14----14-14----14-12-12-12-12---|----|----|----|----|----|
--14----14-14----14-14----14-14----14-12-12-12-12---|----|----|----|----|----|
--0-----0--0-----0--0-----0--0-----0--0--0--0--0----|----|----|----|----|----|


----|----|----|----|----|----------------------------------------------------|
----|----|----|----|----|----------------------------------------------------|
----|----|----|----|----|--4--------4--------4--------4--------5--------5----|
----|----|----|----|----|-----2--------2--------2--------2--------3----------|
----|----|----|----|----|--------2--------2--------2--------2--------3-------|
----|----|----|----|----|----------------------------------------------------|


----------------------------------------------------|
----------------------------------------------------|
--4--------4--------4--------4--------2--------2----|
-----2--------2--------2--------2--------2----------|
--------2--------2--------2--------2--------0-------|
----------------------------------------------------|


----------------------------------------------------|
----------------------------------------------------|
--4--------4--------4--------4--------5--------5----|
-----2--------2--------2--------2--------3----------|
--------2--------2--------2--------2--------3-------|
----------------------------------------------------|


----------------------------------------------------|
----------------------------------------------------|
--4--------4--------4--------4--------2--------2----|
-----2--------2--------2--------2--------2----------|
--------2--------2--------2--------2--------0-------|
----------------------------------------------------|


----------------------------------------------------|
----------------------------------------------------|
--4--------4--------4--------4--------5--------5----|
-----2--------2--------2--------2--------3----------|
--------2--------2--------2--------2--------3-------|
----------------------------------------------------|


----------------------------------------------------|
----------------------------------------------------|
--4--------4--------4--------4--------2--------2----|
-----2--------2--------2--------2--------2----------|
--------2--------2--------2--------2--------0-------|
----------------------------------------------------|


----------------------------------------------------|
----------------------------------------------------|
--4--------4--------4--------4--------5--------5----|
-----2--------2--------2--------2--------3----------|
--------2--------2--------2--------2--------3-------|
----------------------------------------------------|


----------------------------------------------------|
----------------------------------------------------|
--4--------4--------4--------4--------2--------2----|
-----2--------2--------2--------2--------2----------|
--------2--------2--------2--------2--------0-------|
----------------------------------------------------|


----------------------------------------------------|
----------------------------------------------------|
--4--------4--------4--------4--------5--------5----|
-----2--------2--------2--------2--------3----------|
--------2--------2--------2--------2--------3-------|
----------------------------------------------------|


----------------------------------------------------|-------|----|----|----|
----------------------------------------------------|--5----|----|----|----|
--4--------4--------4--------4--------2--------2----|--4----|----|----|----|
-----2--------2--------2--------2--------2----------|--2----|----|----|----|
--------2--------2--------2--------2--------0-------|--2----|----|----|----|
----------------------------------------------------|--0----|----|----|----|


----|----|----|----||
----|----|----|----||
----|----|----|----||
----|----|----|----||
----|----|----|----||
----|----|----|----||

Voice 1 (electric guitar)

This is the plain transcription of the vocal track

D |----|----|----|----|----|----|----|----|----|----|----|----|----|----|----|
A |----|----|----|----|----|----|----|----|----|----|----|----|----|----|----|
F |----|----|----|----|----|----|----|----|----|----|----|----|----|----|----|
C |----|----|----|----|----|----|----|----|----|----|----|----|----|----|----|
G |----|----|----|----|----|----|----|----|----|----|----|----|----|----|----|
D |----|----|----|----|----|----|----|----|----|----|----|----|----|----|----|


----|----|----|----|----|----|----|----|----|----|----|----|----|
----|----|----|----|----|----|----|----|----|----|----|----|----|
----|----|----|----|----|----|----|----|----|----|----|----|----|
----|----|----|----|----|----|----|----|----|----|----|----|----|
----|----|----|----|----|----|----|----|----|----|----|----|----|
----|----|----|----|----|----|----|----|----|----|----|----|----|


--12-------10---|--7--------5----|--12L--|--12---|--12-------10---|
----------------|----------------|-------|-------|----------------|
--9--------7----|--4--------2----|--9L---|--9----|--9--------7----|
----------------|----------------|-------|-------|----------------|
----------------|----------------|-------|-------|----------------|
----------------|----------------|-------|-------|----------------|


--7--------5----|--12---|----------------------------------------------------|
----------------|-------|----------------------------------------------------|
--4--------2----|--9----|--------------------------------------------9--10---|
----------------|-------|----------------------------------------------------|
----------------|-------|----------------------------------------------------|
----------------|-------|----------------------------------------------------|


--------------------------------------------------------------------------------
--9--------------------------9--------------------------------------------------
--------------------10----------------10-------9--------7-----------------9-----
--------------------------------------------------------------------------------
--------------------------------------------------------------------------------
--------------------------------------------------------------------------------


--------------------------------------------------------------------|
------------------9-------------------------------------------------|
------10----------------------9-----------------9--------10---------|
--------------------------------------------------------------------|
--------------------------------------------------------------------|
--------------------------------------------------------------------|


--------------------------------------------------------------------------------
--9--------------------------9--------------------------------------------------
--------------------10----------------10-------9--------7-----------------9-----
--------------------------------------------------------------------------------
--------------------------------------------------------------------------------
--------------------------------------------------------------------------------


--------------------------------------------------------------------|
------------------9-------------------------------------------------|
------10----------------------9-----------------9--------10---------|
--------------------------------------------------------------------|
--------------------------------------------------------------------|
--------------------------------------------------------------------|


--------------------------------------------------------------------------------
--9--------------------------9--------------------------------------------------
--------------------10----------------10-------9--------7-----------------9-----
--------------------------------------------------------------------------------
--------------------------------------------------------------------------------
--------------------------------------------------------------------------------


--------------------------------------------------------------------|
------------------9-------------------------------------------------|
------10----------------------9-----------------9--------10---------|
--------------------------------------------------------------------|
--------------------------------------------------------------------|
--------------------------------------------------------------------|


--------------------------------------------------------------------------------
--9--------------------------9--------------------------------------------------
--------------------10----------------10-------9--------7-----------------9-----
--------------------------------------------------------------------------------
--------------------------------------------------------------------------------
--------------------------------------------------------------------------------


--------------------------------------------------------------------|
------------------9-------------------------------------------------|
------10----------------------9-----------------9--------10---------|
--------------------------------------------------------------------|
--------------------------------------------------------------------|
--------------------------------------------------------------------|


--------------------------------------------------------------------------------
--9--------------------------9--------------------------------------------------
--------------------10----------------10-------9--------7-----------------9-----
--------------------------------------------------------------------------------
--------------------------------------------------------------------------------
--------------------------------------------------------------------------------


--------------------------------------------------------------------|
------------------9-------------------------------------------------|
------10----------------------9-----------------9--------10---------|
--------------------------------------------------------------------|
--------------------------------------------------------------------|
--------------------------------------------------------------------|


--------------------------------------------------------------------------------
--9--------------------------9--------------------------------------------------
--------------------10----------------10-------9--------7-----------------9-----
--------------------------------------------------------------------------------
--------------------------------------------------------------------------------
--------------------------------------------------------------------------------


--------------------------------------------------------------------|----|----|
------------------9-------------------------------------------------|----|----|
------10----------------------9-------------------------------------|----|----|
--------------------------------------------------------------------|----|----|
--------------------------------------------------------------------|----|----|
--------------------------------------------------------------------|----|----|


----|----|----|----------------------------------------------------|
----|----|----|--------------------------------------------9--10---|
----|----|----|----------------------------------------------------|
----|----|----|----------------------------------------------------|
----|----|----|----------------------------------------------------|
----|----|----|----------------------------------------------------|


----------------------------------------------------|
--12----10-12-9--10-12----10-12-9--10-12----13-12---|
----------------------------------------------------|
----------------------------------------------------|
----------------------------------------------------|
----------------------------------------------------|


----------------------------------------------------|
--10----9--9--------------------------------9--10---|
-----------------10-10----9--9-----7--9-------------|
----------------------------------------------------|
----------------------------------------------------|
----------------------------------------------------|


----------------------------------------------------|
--12----10-12-9--10-12----10-12-9--10-12----13-12---|
----------------------------------------------------|
----------------------------------------------------|
----------------------------------------------------|
----------------------------------------------------|


----------------------------------------------------|
--10----9--9----------------------------------------|
-----------------10-10----9--9-----7--9-----9--10---|
----------------------------------------------------|
----------------------------------------------------|
----------------------------------------------------|


--------------------------------------------------------------------------------
--9--------------------------9--------------------------------------------------
--------------------10----------------10-------9--------7-----------------9-----
--------------------------------------------------------------------------------
--------------------------------------------------------------------------------
--------------------------------------------------------------------------------


--------------------------------------------------------------------|
------------------9-------------------------------------------------|
------10----------------------9-----------------9--------10---------|
--------------------------------------------------------------------|
--------------------------------------------------------------------|
--------------------------------------------------------------------|


--------------------------------------------------------------------------------
--9--------------------------9--------------------------------------------------
--------------------10----------------10-------9--------7-----------------9-----
--------------------------------------------------------------------------------
--------------------------------------------------------------------------------
--------------------------------------------------------------------------------


--------------------------------------------------------------------|
------------------9-----------------------------9--------10---------|
------10----------------------9-------------------------------------|
--------------------------------------------------------------------|
--------------------------------------------------------------------|
--------------------------------------------------------------------|


----------------------------------------------------|
--12----10-12-9--10-12----10-12-9--10-12----13-12---|
----------------------------------------------------|
----------------------------------------------------|
----------------------------------------------------|
----------------------------------------------------|


----------------------------------------------------|
--10----9--9--------------------------------9--10---|
-----------------10-10----9--9-----7--9-------------|
----------------------------------------------------|
----------------------------------------------------|
----------------------------------------------------|


----------------------------------------------------|
--12----10-12-9--10-12----10-12-9--10-12----13-12---|
----------------------------------------------------|
----------------------------------------------------|
----------------------------------------------------|
----------------------------------------------------|


----------------------------------------------------|
--10----9--9----------------------------------------|
-----------------10-10----9--9-----7--9-----9--10---|
----------------------------------------------------|
----------------------------------------------------|
----------------------------------------------------|


--------------------------------------------------------------------------------
--9--------------------------9--------------------------------------------------
--------------------10----------------10-------9--------7-----------------9-----
--------------------------------------------------------------------------------
--------------------------------------------------------------------------------
--------------------------------------------------------------------------------


--------------------------------------------------------------------|
------------------9-------------------------------------------------|
------10----------------------9-----------------9--------10---------|
--------------------------------------------------------------------|
--------------------------------------------------------------------|
--------------------------------------------------------------------|


--------------------------------------------------------------------------------
--9--------------------------9--------------------------------------------------
--------------------10----------------10-------9--------7-----------------9-----
--------------------------------------------------------------------------------
--------------------------------------------------------------------------------
--------------------------------------------------------------------------------


--------------------------------------------------------------------|
------------------9-------------------------------------------------|
------10----------------------9-----------------9--------10---------|
--------------------------------------------------------------------|
--------------------------------------------------------------------|
--------------------------------------------------------------------|


--------------------------------------------------------------------------------
--9--------------------------9--------------------------------------------------
--------------------10----------------10-------9--------7-----------------9-----
--------------------------------------------------------------------------------
--------------------------------------------------------------------------------
--------------------------------------------------------------------------------


--------------------------------------------------------------------|
------------------9-------------------------------------------------|
------10----------------------9-----------------9--------10---------|
--------------------------------------------------------------------|
--------------------------------------------------------------------|
--------------------------------------------------------------------|


--------------------------------------------------------------------------------
--9--------------------------9--------------------------------------------------
--------------------10----------------10-------9--------7-----------------9-----
--------------------------------------------------------------------------------
--------------------------------------------------------------------------------
--------------------------------------------------------------------------------


--------------------------------------------------------------------|-------|
------------------9-------------------------------------------------|-------|
------10----------------------9L------------------------------------|--9----|
--------------------------------------------------------------------|-------|
--------------------------------------------------------------------|-------|
--------------------------------------------------------------------|-------|


----|----|----|----|----|----|----||
----|----|----|----|----|----|----||
----|----|----|----|----|----|----||
----|----|----|----|----|----|----||
----|----|----|----|----|----|----||
----|----|----|----|----|----|----||

Voice 2

An eery/aggressive armonization of the main vocal

D |----|----|----|----|----|----|----|----|----|----|----|----|----|----|----|
A |----|----|----|----|----|----|----|----|----|----|----|----|----|----|----|
F |----|----|----|----|----|----|----|----|----|----|----|----|----|----|----|
C |----|----|----|----|----|----|----|----|----|----|----|----|----|----|----|
G |----|----|----|----|----|----|----|----|----|----|----|----|----|----|----|
D |----|----|----|----|----|----|----|----|----|----|----|----|----|----|----|


----|----|----|----|----|----|----|----|----|----|----|----|----|----|----|----|
----|----|----|----|----|----|----|----|----|----|----|----|----|----|----|----|
----|----|----|----|----|----|----|----|----|----|----|----|----|----|----|----|
----|----|----|----|----|----|----|----|----|----|----|----|----|----|----|----|
----|----|----|----|----|----|----|----|----|----|----|----|----|----|----|----|
----|----|----|----|----|----|----|----|----|----|----|----|----|----|----|----|


----|----|----|----|----|----|----|----|
----|----|----|----|----|----|----|----|
----|----|----|----|----|----|----|----|
----|----|----|----|----|----|----|----|
----|----|----|----|----|----|----|----|
----|----|----|----|----|----|----|----|


----------------------------------------------------|
----------------------------------------------------|
--------------------------------------------12-13---|
----------------------------------------------------|
----------------------------------------------------|
----------------------------------------------------|


--------------------------------------------------------------------------------
--12-------------------------12-------------------------------------------------
--------------------13----------------13-------12-------10----------------12----
--------------------------------------------------------------------------------
--------------------------------------------------------------------------------
--------------------------------------------------------------------------------


--------------------------------------------------------------------|
------------------12------------------------------------------------|
------13----------------------12----------------12-------13---------|
--------------------------------------------------------------------|
--------------------------------------------------------------------|
--------------------------------------------------------------------|


--------------------------------------------------------------------------------
--12-------------------------12-------------------------------------------------
--------------------13----------------13-------12-------10----------------12----
--------------------------------------------------------------------------------
--------------------------------------------------------------------------------
--------------------------------------------------------------------------------


--------------------------------------------------------------------|----|----|
------------------12------------------------------------------------|----|----|
------13----------------------12------------------------------------|----|----|
--------------------------------------------------------------------|----|----|
--------------------------------------------------------------------|----|----|
--------------------------------------------------------------------|----|----|


----|----|--------------------4--5--------------------4--5----|
----|----|--5--------4--5-----------5--------4--5-------------|
----|----|----------------------------------------------------|
----|----|----------------------------------------------------|
----|----|----------------------------------------------------|
----|----|----------------------------------------------------|


----------------------------------------------------|----|----|----|
--------------------3--5--------------------3--5----|----|----|----|
--4--------2--4-----------4--------2--4-------------|----|----|----|
----------------------------------------------------|----|----|----|
----------------------------------------------------|----|----|----|
----------------------------------------------------|----|----|----|


----------------------------------------------------|
----------------------------------------------------|
--------------------------------------------12-13---|
----------------------------------------------------|
----------------------------------------------------|
----------------------------------------------------|


--------------------------------------------------------------------------------
--12-------------------------12-------------------------------------------------
--------------------13----------------13-------12-------10----------------12----
--------------------------------------------------------------------------------
--------------------------------------------------------------------------------
--------------------------------------------------------------------------------


--------------------------------------------------------------------|
------------------12------------------------------------------------|
------13----------------------12----------------12-------13---------|
--------------------------------------------------------------------|
--------------------------------------------------------------------|
--------------------------------------------------------------------|


--------------------------------------------------------------------------------
--12-------------------------12-------------------------------------------------
--------------------13----------------13-------12-------10----------------12----
--------------------------------------------------------------------------------
--------------------------------------------------------------------------------
--------------------------------------------------------------------------------


--------------------------------------------------------------------|
------------------12----------------------------16-------17---------|
------13----------------------12------------------------------------|
--------------------------------------------------------------------|
--------------------------------------------------------------------|
--------------------------------------------------------------------|


----------------------------------------------------|
--19----17-19-16-17-19----17-19-16-17-19----20-19---|
----------------------------------------------------|
----------------------------------------------------|
----------------------------------------------------|
----------------------------------------------------|


----------------------------------------------------|
--17----16-16-------------------------------16-17---|
-----------------17-17----16-16----14-16------------|
----------------------------------------------------|
----------------------------------------------------|
----------------------------------------------------|


----------------------------------------------------|
--19----17-19-16-17-19----17-19-16-17-19----20-19---|
----------------------------------------------------|
----------------------------------------------------|
----------------------------------------------------|
----------------------------------------------------|


----------------------------------------------------|
--17----16-16---------------------------------------|
-----------------17-17----16-16----14-16----12-13---|
----------------------------------------------------|
----------------------------------------------------|
----------------------------------------------------|


--------------------------------------------------------------------------------
--12-------------------------12-------------------------------------------------
--------------------13----------------13-------12-------10----------------12----
--------------------------------------------------------------------------------
--------------------------------------------------------------------------------
--------------------------------------------------------------------------------


--------------------------------------------------------------------|
------------------12------------------------------------------------|
------13----------------------12----------------12-------13---------|
--------------------------------------------------------------------|
--------------------------------------------------------------------|
--------------------------------------------------------------------|


--------------------------------------------------------------------------------
--12-------------------------12-------------------------------------------------
--------------------13----------------13-------12-------10----------------12----
--------------------------------------------------------------------------------
--------------------------------------------------------------------------------
--------------------------------------------------------------------------------


--------------------------------------------------------------------|
------------------12------------------------------------------------|
------13----------------------12----------------12-------13---------|
--------------------------------------------------------------------|
--------------------------------------------------------------------|
--------------------------------------------------------------------|


--------------------------------------------------------------------------------
--12-------------------------12-------------------------------------------------
--------------------13----------------13-------12-------10----------------12----
--------------------------------------------------------------------------------
--------------------------------------------------------------------------------
--------------------------------------------------------------------------------


--------------------------------------------------------------------|
------------------12------------------------------------------------|
------13----------------------12----------------12-------13---------|
--------------------------------------------------------------------|
--------------------------------------------------------------------|
--------------------------------------------------------------------|


--------------------------------------------------------------------------------
--12-------------------------12-------------------------------------------------
--------------------13----------------13-------12-------10----------------12----
--------------------------------------------------------------------------------
--------------------------------------------------------------------------------
--------------------------------------------------------------------------------


--------------------------------------------------------------------|-------|
------------------12------------------------------------------------|-------|
------13----------------------12L-----------------------------------|--12---|
--------------------------------------------------------------------|-------|
--------------------------------------------------------------------|-------|
--------------------------------------------------------------------|-------|


----|----|----|----|----|----|----||
----|----|----|----|----|----|----||
----|----|----|----|----|----|----||
----|----|----|----|----|----|----||
----|----|----|----|----|----|----||
----|----|----|----|----|----|----||

Rythm 1 (electric)

D |----|----|----|----|----|----|----|----|----|----|----|----|----|----|----|
A |----|----|----|----|----|----|----|----|----|----|----|----|----|----|----|
F |----|----|----|----|----|----|----|----|----|----|----|----|----|----|----|
C |----|----|----|----|----|----|----|----|----|----|----|----|----|----|----|
G |----|----|----|----|----|----|----|----|----|----|----|----|----|----|----|
D |----|----|----|----|----|----|----|----|----|----|----|----|----|----|----|


----|----|----|----|----|----|----|----|----|----|----|----|----|----|----|----|
----|----|----|----|----|----|----|----|----|----|----|----|----|----|----|----|
----|----|----|----|----|----|----|----|----|----|----|----|----|----|----|----|
----|----|----|----|----|----|----|----|----|----|----|----|----|----|----|----|
----|----|----|----|----|----|----|----|----|----|----|----|----|----|----|----|
----|----|----|----|----|----|----|----|----|----|----|----|----|----|----|----|


----|----|----|----|----|----|----|----|
----|----|----|----|----|----|----|----|
----|----|----|----|----|----|----|----|
----|----|----|----|----|----|----|----|
----|----|----|----|----|----|----|----|
----|----|----|----|----|----|----|----|


----------------------------------------------------|
----------------------------------------------------|
--------------------------------------------12-13---|
----------------------------------------------------|
----------------------------------------------------|
----------------------------------------------------|


--------------------------------------------------------------------------------
--12-------------------------12-------------------------------------------------
--------------------13----------------13-------12-------10----------------12----
--------------------------------------------------------------------------------
--------------------------------------------------------------------------------
--------------------------------------------------------------------------------


--------------------------------------------------------------------|
------------------12------------------------------------------------|
------13----------------------12----------------12-------13---------|
--------------------------------------------------------------------|
--------------------------------------------------------------------|
--------------------------------------------------------------------|


--------------------------------------------------------------------------------
--12-------------------------12-------------------------------------------------
--------------------13----------------13-------12-------10----------------12----
--------------------------------------------------------------------------------
--------------------------------------------------------------------------------
--------------------------------------------------------------------------------


--------------------------------------------------------------------|----|----|
------------------12------------------------------------------------|----|----|
------13----------------------12------------------------------------|----|----|
--------------------------------------------------------------------|----|----|
--------------------------------------------------------------------|----|----|
--------------------------------------------------------------------|----|----|


----|----|--------------------4--5--------------------4--5----|
----|----|--5--------4--5-----------5--------4--5-------------|
----|----|----------------------------------------------------|
----|----|----------------------------------------------------|
----|----|----------------------------------------------------|
----|----|----------------------------------------------------|


----------------------------------------------------|----|----|----|
--------------------3--5--------------------3--5----|----|----|----|
--4--------2--4-----------4--------2--4-------------|----|----|----|
----------------------------------------------------|----|----|----|
----------------------------------------------------|----|----|----|
----------------------------------------------------|----|----|----|


----------------------------------------------------|
----------------------------------------------------|
--------------------------------------------12-13---|
----------------------------------------------------|
----------------------------------------------------|
----------------------------------------------------|


--------------------------------------------------------------------------------
--12-------------------------12-------------------------------------------------
--------------------13----------------13-------12-------10----------------12----
--------------------------------------------------------------------------------
--------------------------------------------------------------------------------
--------------------------------------------------------------------------------


--------------------------------------------------------------------|
------------------12------------------------------------------------|
------13----------------------12----------------12-------13---------|
--------------------------------------------------------------------|
--------------------------------------------------------------------|
--------------------------------------------------------------------|


--------------------------------------------------------------------------------
--12-------------------------12-------------------------------------------------
--------------------13----------------13-------12-------10----------------12----
--------------------------------------------------------------------------------
--------------------------------------------------------------------------------
--------------------------------------------------------------------------------


--------------------------------------------------------------------|
------------------12----------------------------16-------17---------|
------13----------------------12------------------------------------|
--------------------------------------------------------------------|
--------------------------------------------------------------------|
--------------------------------------------------------------------|


----------------------------------------------------|
--19----17-19-16-17-19----17-19-16-17-19----20-19---|
----------------------------------------------------|
----------------------------------------------------|
----------------------------------------------------|
----------------------------------------------------|


----------------------------------------------------|
--17----16-16-------------------------------16-17---|
-----------------17-17----16-16----14-16------------|
----------------------------------------------------|
----------------------------------------------------|
----------------------------------------------------|


----------------------------------------------------|
--19----17-19-16-17-19----17-19-16-17-19----20-19---|
----------------------------------------------------|
----------------------------------------------------|
----------------------------------------------------|
----------------------------------------------------|


----------------------------------------------------|
--17----16-16---------------------------------------|
-----------------17-17----16-16----14-16----12-13---|
----------------------------------------------------|
----------------------------------------------------|
----------------------------------------------------|


--------------------------------------------------------------------------------
--12-------------------------12-------------------------------------------------
--------------------13----------------13-------12-------10----------------12----
--------------------------------------------------------------------------------
--------------------------------------------------------------------------------
--------------------------------------------------------------------------------


--------------------------------------------------------------------|
------------------12------------------------------------------------|
------13----------------------12----------------12-------13---------|
--------------------------------------------------------------------|
--------------------------------------------------------------------|
--------------------------------------------------------------------|


--------------------------------------------------------------------------------
--12-------------------------12-------------------------------------------------
--------------------13----------------13-------12-------10----------------12----
--------------------------------------------------------------------------------
--------------------------------------------------------------------------------
--------------------------------------------------------------------------------


--------------------------------------------------------------------|
------------------12------------------------------------------------|
------13----------------------12----------------12-------13---------|
--------------------------------------------------------------------|
--------------------------------------------------------------------|
--------------------------------------------------------------------|


--------------------------------------------------------------------------------
--12-------------------------12-------------------------------------------------
--------------------13----------------13-------12-------10----------------12----
--------------------------------------------------------------------------------
--------------------------------------------------------------------------------
--------------------------------------------------------------------------------


--------------------------------------------------------------------|
------------------12------------------------------------------------|
------13----------------------12----------------12-------13---------|
--------------------------------------------------------------------|
--------------------------------------------------------------------|
--------------------------------------------------------------------|


--------------------------------------------------------------------------------
--12-------------------------12-------------------------------------------------
--------------------13----------------13-------12-------10----------------12----
--------------------------------------------------------------------------------
--------------------------------------------------------------------------------
--------------------------------------------------------------------------------


--------------------------------------------------------------------|-------|
------------------12------------------------------------------------|-------|
------13----------------------12L-----------------------------------|--12---|
--------------------------------------------------------------------|-------|
--------------------------------------------------------------------|-------|
--------------------------------------------------------------------|-------|


----|----|----|----|----|----|----||
----|----|----|----|----|----|----||
----|----|----|----|----|----|----||
----|----|----|----|----|----|----||
----|----|----|----|----|----|----||
----|----|----|----|----|----|----||

Rythm 2

As soon as we recorded this one, we called it "the train". You gotta. Hit. HARD. Pick the palm muted part as if your arm was an hydraulic press.

D |----|----|----|----|----|----|----|----|----|----|----|----|----|----|----|
A |----|----|----|----|----|----|----|----|----|----|----|----|----|----|----|
F |----|----|----|----|----|----|----|----|----|----|----|----|----|----|----|
C |----|----|----|----|----|----|----|----|----|----|----|----|----|----|----|
G |----|----|----|----|----|----|----|----|----|----|----|----|----|----|----|
D |----|----|----|----|----|----|----|----|----|----|----|----|----|----|----|


----|----|----|----|----|----|----|----|----|----|----|----|----|----|----|----|
----|----|----|----|----|----|----|----|----|----|----|----|----|----|----|----|
----|----|----|----|----|----|----|----|----|----|----|----|----|----|----|----|
----|----|----|----|----|----|----|----|----|----|----|----|----|----|----|----|
----|----|----|----|----|----|----|----|----|----|----|----|----|----|----|----|
----|----|----|----|----|----|----|----|----|----|----|----|----|----|----|----|


----|----|----|----|----|----|----|----|----|----|----|
----|----|----|----|----|----|----|----|----|----|----|
----|----|----|----|----|----|----|----|----|----|----|
----|----|----|----|----|----|----|----|----|----|----|
----|----|----|----|----|----|----|----|----|----|----|
----|----|----|----|----|----|----|----|----|----|----|


----------------------------------------------------|
----------------------------------------------------|
----------------------------------------------------|
--------------------0--2--------------------0--2----|
--2--------0--2-----------2--------0--2-------------|
----------------------------------------------------|


----------------------------------------------------|
----------------------------------------------------|
----------------------------------------------------|
--------------------0--2--------------------0--2----|
--2--------0--2-----------2--------0--2-------------|
----------------------------------------------------|


----------------------------------------------------|
----------------------------------------------------|
----------------------------------------------------|
--------------------0--2--------------------0--2----|
--3--------2--3-----------3--------2--3-------------|
----------------------------------------------------|


----------------------------------------------------|
----------------------------------------------------|
----------------------------------------------------|
--------------------0--2--------------------0--2----|
--3--------2--3-----------3--------2--3-------------|
----------------------------------------------------|


----------------------------------------------------|
----------------------------------------------------|
----------------------------------------------------|
--------------------2--3--------------------2--3----|
--3--------2--3-----------3--------2--3-------------|
----------------------------------------------------|


----------------------------------------------------|----|----|----|
----------------------------------------------------|----|----|----|
----------------------------------------------------|----|----|----|
--------------------0--2--------------------0--2----|----|----|----|
--2--------0--2-----------2--------0--2-------------|----|----|----|
----------------------------------------------------|----|----|----|


----------------------------------------------------|
----------------------------------------------------|
----------------------------------------------------|
--------------------------------------------3M-3M---|
--------------------------------------------2M-2M---|
--------------------------------------------0M-0M---|


--------------------------------------------------------------------------------
--------------------------------------------------------------------------------
--------------------------------------------------------------------------5-----
--3M----------------3M-------3M-------3M-------3M-------3M----------------3-----
--2M----------------2M-------2M-------2M-------2M-------2M----------------2-----
--0M----------------0M-------0M-------0M-------0M-------0M----------------0-----


--------------------------------------------------------------------|
--------------------------------------------------------------------|
------5-----------5-----------5-------------------------------------|
------3-----------3-----------3-----------------3M-------3M---------|
------2-----------2-----------2-----------------2M-------2M---------|
------0-----------0-----------0-----------------0M-------0M---------|


--------------------------------------------------------------------------------
--------------------------------------------------------------------------------
--------------------------------------------------------------------------5-----
--3M----------------3M-------3M-------3M-------3M-------3M----------------3-----
--2M----------------2M-------2M-------2M-------2M-------2M----------------2-----
--0M----------------0M-------0M-------0M-------0M-------0M----------------0-----


--------------------------------------------------------------------|
--------------------------------------------------------------------|
------5-----------5-----------5-------------------------------------|
------3-----------3-----------3-----------------3M-------3M---------|
------2-----------2-----------2-----------------2M-------2M---------|
------0-----------0-----------0-----------------0M-------0M---------|


----------------------------------------------------|
----------------------------------------------------|
----------------------------------------------------|
----------------------------------------------------|
--2M-------2M-------2M-------2M-------2M----2M------|
--0M-------0M-------0M-------0M-------0M----0M------|


----------------------------------------------------|
----------------------------------------------------|
----------------------------------------------------|
----------------------------------------------------|
--2M-------2M-------2M-------2M-------2M----2M------|
--0M-------0M-------0M-------0M-------0M----0M------|


----------------------------------------------------|
----------------------------------------------------|
----------------------------------------------------|
----------------------------------------------------|
--2M-------2M-------2M-------2M-------2M----2M------|
--0M-------0M-------0M-------0M-------0M----0M------|


----------------------------------------------------|
----------------------------------------------------|
----------------------------------------------------|
----------------------------------------------------|
--2M-------2M-------2M-------2M-------2M----2M------|
--0M-------0M-------0M-------0M-------0M----0M------|


--------------------------------------------------------------------------------
--------------------------------------------------------------------------------
--------------------------------------------------------------------------5-----
--3M----------------3M-------3M-------3M-------3M-------3M----------------3-----
--2M----------------2M-------2M-------2M-------2M-------2M----------------2-----
--0M----------------0M-------0M-------0M-------0M-------0M----------------0-----


--------------------------------------------------------------------|
--------------------------------------------------------------------|
------5-----------5-----------5-------------------------------------|
------3-----------3-----------3-----------------3M-------3M---------|
------2-----------2-----------2-----------------2M-------2M---------|
------0-----------0-----------0-----------------0M-------0M---------|


--------------------------------------------------------------------------------
--------------------------------------------------------------------------------
--------------------------------------------------------------------------5-----
--3M----------------3M-------3M-------3M-------3M-------3M----------------3-----
--2M----------------2M-------2M-------2M-------2M-------2M----------------2-----
--0M----------------0M-------0M-------0M-------0M-------0M----------------0-----


--------------------------------------------------------------------|
--------------------------------------------------------------------|
------5-----------5-----------5-------------------------------------|
------3-----------3-----------3-----------------3M-------3M---------|
------2-----------2-----------2-----------------2M-------2M---------|
------0-----------0-----------0-----------------0M-------0M---------|


--------------------------------------------------------------------------------
--------------------------------------------------------------------------------
--------------------------------------------------------------------------5-----
--3M----------------3M-------3M-------3M-------3M-------3M----------------3-----
--2M----------------2M-------2M-------2M-------2M-------2M----------------2-----
--0M----------------0M-------0M-------0M-------0M-------0M----------------0-----


--------------------------------------------------------------------|
--------------------------------------------------------------------|
------5-----------5-----------5-------------------------------------|
------3-----------3-----------3-----------------3M-------3M---------|
------2-----------2-----------2-----------------2M-------2M---------|
------0-----------0-----------0-----------------0M-------0M---------|


--------------------------------------------------------------------------------
--------------------------------------------------------------------------------
--------------------------------------------------------------------------5-----
--3M----------------3M-------3M-------3M-------3M-------3M----------------3-----
--2M----------------2M-------2M-------2M-------2M-------2M----------------2-----
--0M----------------0M-------0M-------0M-------0M-------0M----------------0-----


--------------------------------------------------------------------|-------|
--------------------------------------------------------------------|-------|
------5-----------5-----------5L------------------------------------|--5----|
------3-----------3-----------3L------------------------------------|--3----|
------2-----------2-----------2L------------------------------------|--2----|
------0-----------0-----------0L------------------------------------|--0----|


----|----|----|----|----|----|----||
----|----|----|----|----|----|----||
----|----|----|----|----|----|----||
----|----|----|----|----|----|----||
----|----|----|----|----|----|----||
----|----|----|----|----|----|----||

Bass

I know, it sounds a bit dj0nt-y

F |----|----|----|----|----|----|----|----|----|----|----|----|-------|
C |----|----|----|----|----|----|----|----|----|----|----|----|-------|
G |----|----|----|----|----|----|----|----|----|----|----|----|--7----|
D |----|----|----|----|----|----|----|----|----|----|----|----|-------|
A |----|----|----|----|----|----|----|----|----|----|----|----|-------|

                                                     
----------------------------|-------|-------|-------|
----------------------------|-------|--7----|-------|
--3--------2L----------2----|--7----|-------|--7----|
----------------------------|-------|-------|-------|
----------------------------|-------|-------|-------|

                                                     
----------------------------|-------|-------|-------|
----------------------------|-------|-------|-------|
--3--------2L----------2----|--7----|--7----|-------|
----------------------------|-------|-------|-------|
----------------------------|-------|-------|--6----|

                                                                          
----------------------------|-------|----------------------------|-------|
----------------------------|-------|----------------------------|-------|
----------------------------|-------|----------------------------|-------|
----------------------------|-------|----------------------------|-------|
--1--------0L----------0----|--6----|--10-------9L----------9----|--6----|

                                                                               
----------------------------|-------|-------|----------------|----------------|
----------------------------|-------|-------|----------------|----------------|
----------------------------|-------|-------|----------------|--10-------9----|
----------------------------|-------|-------|--8--------7----|----------------|
--1--------0L----------0----|--6----|--6----|----------------|----------------|

                                        
-------|-------|-------|-------|-------|
-------|-------|-------|-------|-------|
-------|-------|-------|-------|-------|
--0----|--0----|--0----|--1----|--4----|
-------|-------|-------|-------|-------|

  P        P        P        P        P  P
----------------------------------------------------|
----------------------------------------------------|
----------------------------------------------------|
--4-----x--4-----x--4-----x--4-----x--4--4----------|
----------------------------------------------------|


----------------------------------------------------|
----------------------------------------------------|
----------------------------------------------------|
----------------------------------------------------|
--5-----x--5-----x--5-----x--5-----x--3--3--1--1----|


----------------------------------------------------|
----------------------------------------------------|
----------------------------------------------------|
----------------------------------------------------|
--5-----x--5-----x--5-----x--5-----x--3--3--6--6----|


----------------------------------------------------|
----------------------------------------------------|
----------------------------------------------------|
----------------------------------------------------|
--5-----x--5-----x--5-----x--5-----x--3--3--1--1----|


----------------------------------------------------|
----------------------------------------------------|
----------------------------------------------------|
----------------------------------------------------|
--5-----x--5-----x--5-----x--5-----x--3--3--6--6----|


----------------------------------------------------|
----------------------------------------------------|
--7--------7--------7--------7--------7--5--8--5----|
--------xM-------xM-------xM-------xM---------------|
----------------------------------------------------|


----------------------------------------------------|
--------------------------------------10-10-12-12---|
--7--------7--------7--------7----------------------|
--------xM-------xM-------xM-------xM---------------|
----------------------------------------------------|


----------------------------------------------------|
----------------------------------------------------|
--7M-5M-8M-0M----0M-5M-0M-7M-0M----5M-8M-5M-7M-5M---|
----------------------------------------------------|
----------------------------------------------------|


----------------------------------------------------|
----------------------------------------------------|
--7M-5M-8M-0M----0M-5M-0M-7M-0M----5M-8M-5M-7M-5M---|
----------------------------------------------------|
----------------------------------------------------|


----------------------------------------------------|
----------------------------------------------------|
--2M-3M-------------------------------2M----0M-3M---|
--------0M-0M----0M-5M-0M-3M-0M----0M----0M---------|
----------------------------------------------------|


----------------------------------------------------|
----------------------------------------------------|
--2M-3M-------------------------------2M----0M-3M---|
--------0M-0M----0M-5M-0M-3M-0M----0M----0M---------|
----------------------------------------------------|


----------------------------------------------------|
----------------------------------------------------|
--------7M----------------7M------------------------|
--8M-0M----0M----0M-8M-0M----0M----0M-7M-8M-7M-5M---|
----------------------------------------------------|


----------------------------------------------------|----|----|----|----|
----------------------------------------------------|----|----|----|----|
----------------------------------------------------|----|----|----|----|
--4M-5M-0M-0M----0M-5M-0M-5M-0M----0M-1M-0M-1M-0M---|----|----|----|----|
----------------------------------------------------|----|----|----|----|


----------------------------------------------------|
----------------------------------------------------|
----------------------------------------------------|
--12s------0--------0--------0--------0s----12------|
----------------------------------------------------|


----------------------------------------------------|
----------------------------------------------------|
----------------------------------------------------|
--12s------0--------0--------0--------0-----0-------|
----------------------------------------------------|


----------------------------------------------------|
--------------------------------------------7--10---|
--------------------------------------5--8----------|
-----------------------------------7----------------|
--5--5-----5--5-----5--5-----5--5-------------------|


----------------------------------------------------|
----------------------------------------------------|
----------------------------------------------------|
-----------------------------------7--6-------------|
--5--5-----5--5-----5--5-----5--5--------8--7--4----|


----------------------------------------------------|
--------------------------------------------7--10---|
--------------------------------------5--8----------|
-----------------------------------7----------------|
--5--5-----5--5-----5--5-----5--5-------------------|


----------------------------------------------------|
----------------------------------------------------|
----------------------------------------------------|
-----------------------------------7--6-------------|
--5--5-----5--5-----5--5-----5--5--------8--7--4----|


----------------------------------------------------|
----------------------------------------------------|
----------------------------------------------------|
--12s------0--------0--------0--------0s----12------|
----------------------------------------------------|


----------------------------------------------------|
----------------------------------------------------|
----------------------------------------------------|
--12s------0--------0--------0--------0s----12------|
----------------------------------------------------|


----------------------------------------------------|
----------------------------------------------------|
----------------------------------------------------|
--12s------0--------0--------0--------0s----12------|
----------------------------------------------------|


----------------------------------------------------|----|----|----|----|----|
----------------------------------------------------|----|----|----|----|----|
----------------------------------------------------|----|----|----|----|----|
--12s------0--------0--------0--------0-----0-------|----|----|----|----|----|
----------------------------------------------------|----|----|----|----|----|


----|----|----||
----|----|----||
----|----|----||
----|----|----||
----|----|----||
Login or Register to remove this ad.