Ads

Living World (The Witcher 3: Wild Hunt) Guitar Tab

Submitted: Jul 26, 2016 by IkuinenOnni

5
Average: 5 (2 votes)
Download | Listen
Game: The Witcher 3: Wild Hunt
Composer(s): Marcin PrzybyƂowicz, Mikolai Stroinski, Percival
Style: Arrangement, Fingerstyle

AutoScroll: Slow | Medium | Fast
                                 Living World                                   


Steel Guitar
     Q    Q    Q    Q       Q    Q    Q    Q       Q    Q    Q    Q     
E||------------1---------|------------0---------|----------------------|
B||-----------------3----|-----------------1----|------------3---------|
G||-------2--------------|-------0--------------|-------2---------2----|
D||--0-------------------|----------------------|--0-------------------|
A||----------------------|--3-------------------|----------------------|
E||----------------------|----------------------|----------------------|


  Q    Q    Q    Q       Q    Q    Q    Q       Q    Q    Q    Q     
--1-------------------|----------------------|----------------------|
------------3---------|------------3---------|------------3---------|
-------2---------2----|-----------------3----|-----------------5----|
----------------------|-------3--------------|-------5--------------|
----------------------|--1-------------------|--3-------------------|
----------------------|----------------------|----------------------|


  Q    Q    Q    Q       W                     W                 
-----------------0----|--1-----------------||--2----------------|
------------3---------|--------------------||-------------------|
-------2--------------|-------------------*||-------------------|
--0-------------------|-------------------*||-------------------|
----------------------|--------------------||-------------------|
----------------------|--------------------||-------------------|


  W                   H        Q.     E     H        H         
--1----------------|-----------0---------|--1-----------------|
--3----------------|---------------------|--3--------3--------|
--3----------------|--0------------------|--2-----------------|
--3----------------|------------------0--|--0-----------------|
-------------------|--3------------------|--------------------|
-------------------|---------------------|--------------------|


                       |--3-|  |--3--|                                  
  H        H           Q    E  E  E  E  H           H        Q    Q     
--------------------|-------0--------------------|-----------0---------|
--L-----------------|--3-------3--1--3--L--------|----------------1----|
--------------------|--3-------------------------|--0------------------|
-----------3--------|--3-------------------------|---------------------|
--------------------|----------------------------|--3--------L----L----|
--------------------|----------------------------|---------------------|


  H        H           W                   H        H         
--------------------|-------------------|--3-----------------|
--3-----------------|--3----------------|--3--------3--------|
--2--------2--------|-------------------|--3-----------------|
--0-----------------|-------------------|--0-----------------|
--------------------|-------------------|--------------------|
--------------------|-------------------|--------------------|


  H        Q    Q       H        E  E  E  E     Q    Q    H         
--3------------------|--1--------1--3--1--0--|--1------------------|
--1--------3---------|--3--------3-----------|--3---------3--------|
--0-------------0----|--2--------2-----------|--2---------2--------|
---------------------|--0--------0-----------|--0----3-------------|
--3------------------|-----------------------|---------------------|
---------------------|-----------------------|---------------------|


           |----3----|                                                 
  H        Q    Q    Q       H        H           Q    Q    Q    Q     
--------------------------|--0-----------------|----------------------|
----------------1----3----|--1--------1--------|--3---------1---------|
--3--------3--------------|--------------------|--2----2---------2----|
--3-----------------------|--------------------|--0-------------------|
--1-----------------------|--3-----------------|--0-------------------|
--------------------------|--------------------|----------------------|


  Q    Q    Q    Q       Q    Q    Q    Q       Q    Q    H         
----------------------|----------------------|---------------------|
--3---------1---------|--3---------1---------|--3---------1--------|
-------2---------2----|--2----2---------2----|-------2-------------|
----------------------|--0-------------------|---------------------|
----------------------|--0-------------------|---------------------|
----------------------|----------------------|---------------------|


    Q    Q    Q    Q       Q    Q    Q    Q       Q    Q    Q    Q     
|-------------1---------|------------0---------|----------------------|
|------------------3----|-----------------1----|------------3---------|
|*-------2----L---------|-------0--------------|-------2----L----2----|
|*--0----L----L---------|----------------------|--0-------------------|
|-----------------------|--3-------------------|----------------------|
|-----------------------|----------------------|----------------------|


  Q    Q    Q    Q       Q    Q    Q    Q       Q    Q    Q    Q     
--1----L----L---------|----------------------|----------------------|
------------3---------|------------3---------|------------3---------|
-------2---------2----|-----------------3----|-----------------5----|
----------------------|-------3--------------|-------5--------------|
----------------------|--1-------------------|--3-------------------|
----------------------|----------------------|----------------------|


  Q    Q    Q    Q       W                     W                 
-----------------0----|--1-----------------||--2----------------|
------------3---------|--------------------||-------------------|
-------2--------------|-------------------*||-------------------|
--0-------------------|-------------------*||-------------------|
----------------------|--------------------||-------------------|
----------------------|--------------------||-------------------|


  Q.     E  H           H        H           W                 
---------3--1--------|--L--------3--------|--5----------------|
--3------------------|-----------1--------|--3----------------|
--3------------------|--------------------|--2----------------|
--3------------------|--------------------|--0----------------|
---------------------|-----------3--------|-------------------|
---------------------|--------------------|-------------------|


  W                   Q    Q    H           Q.     S S Q    E  E   
--L----------------|-------3----1--------|--L------3-1-0----1--0--|
--L----------------|--3------------------|-------------1----------|
--L----------------|--3------------------|------------------------|
--L----------------|--3------------------|------------------------|
-------------------|---------------------|-------------3----------|
-------------------|---------------------|------------------------|


  H.           Q       W                   Q    Q    H         
--------------------|-------------------|-------3----1--------|
--3-----------------|--0----------------|--3------------------|
--3------------2----|-------------------|--3------------------|
--------------------|-------------------|--0------------------|
--------------------|-------------------|---------------------|
--3-----------------|-------------------|---------------------|


  Q.     E  H           H        H           W                 
---------1--3--------|--5-----------------|-------------------|
------------1--------|--------------------|-------------------|
--3------------------|--------------------|-------------------|
--3------------------|--0-----------------|--0----------------|
------------3--------|-----------0--------|-------------------|
---------------------|--------------------|-------------------|


  W                   H        H           W                  
-------------------|--------------------|-------------------||
--3----------------|--3--------1--------|--3----------------||
--3----------------|--5--------0--------|--2----------------||
-------------------|--5--------2--------|--0----------------||
-------------------|--3--------3--------|--0----------------||
--3----------------|--3-----------------|-------------------||




Duration Legend
---------------
W - whole
H - half
Q - quarter
E - 8th
S - 16th
T - 32nd
X - 64th
. - note dotted
|-n-|  - n-tuplets


Tablature Legend
----------------
L - tied note
x - dead note
g - grace note
(n) - ghost note
> - accentuded note
NH - natural harmonic
AH - artificial harmonic
TH - tapped harmonic
SH - semi harmonic
PH - pitch harmonic
h - hammer on
p - pull off
b - bend
br - bendRelease
pb - preBend
pbr - preBendRelease
brb - bendReleaseBend
\n/ - tremolo bar dip
\n - tremolo bar dive
-/n - tremolo bar Release up
/n\ - tremolo bar inverted dip
/n - tremolo bar return
-\n - tremolo bar Release down
S - shift slide
s - legato slide
/ -  slide into from below or out of upwards
\ -  slide into from above or out of downwards
~ - vibrato
W - wide vibrato
tr - trill
TP - tremolo picking
T - tapping
S - slap
P - pop
< - fade in
^ - brush up
v - brush down
Login or Register to remove this ad.

1 comment on Living World

Wonderful, your tab is

Wonderful, your tab is perfect! thanks !