Bonnie At Morn (The Witcher 3: Wild Hunt) Guitar Tab

Submitted: Dec 28, 2016 by IkuinenOnni

5
Average: 5 (2 votes)
Download | Listen
Game: The Witcher 3: Wild Hunt
Composer(s): Marcin PrzybyƂowicz, Mikolai Stroinski, Percival
Style: Arrangement, Fingerstyle

This song is also called Whispers of Oxenfurt

AutoScroll: Slow | Medium | Fast
                                Bonny At Morn                                   


Nylon Guitar
     H        Q       E  E  E  E  E  E     E  E  Q    E  S S  
E||----------------|--------------------|--------------------|
B||----------------|--------------------|--------------------|
G||----------------|--2--------3--2--0--|--2-----------------|
D||-----------0----|--------0-----------|--------0----3----3-|
A||----------------|-----0--------------|-----0----------3---|
D||----------------|--0-----------------|--0-----------------|


  E  Q    E  E  E     E  E  E  E  Q       E  E  E  E  E  E     Q    Q    E  E   
-------------------|-------------------|--------------------|-------0----------|
-------------------|-------------------|--------3-----------|------------1-----|
--0----------------|--------------2----|-----------2--2-----|------------------|
----------3--2--0--|--3--------0-------|--------0-----3--0--|--2----3----2--0--|
-------------3-----|--------0----------|-----0--------------|--3---------------|
-----5----------5--|--0--3-------------|--0-----------------|------------------|


  E  E  E  E  E  E     E  E  Q    E  E     E  E  Q    Q       E  E  Q    E  E   
--------------------|-------------------|------------------|-------------------|
--------------------|-------------------|------------------|--------3----------|
--2-----2--3--2--0--|--2----------------|--0---------------|-------------2--0--|
--------0-----3--0--|--------0----2--3--|--------2---------|--0----------------|
-----0--------------|-----0-------------|-------------3----|--------1----------|
--0-----------------|--0----------3-----|-----5--5---------|-----3-------------|


  Q    E  E  E  E       E  E  Q    E  E     E  E  E  E  E  E   
-------5-----------|--7g5----------3-----|--------------------|
-------------------|---------------------|--------------------|
--2----2--0--------|----------3----------|--2--------3--2--0--|
-------------3--2--|-------0-------2--0--|--------0-----3-----|
-------------------|---------------------|-----0-----------0--|
-------------------|----5----------------|--0-----------------|


  Q    Q    E  E     E  E  E  E  E  E     Q    Q    Q       E  E  E  E  E  E   
------------------|--------------------|-----------------|--------------------|
------------------|--1-----------------|-----------------|--------------3--1--|
--2---------------|--0-----------------|-----------------|-----------2--------|
-------0----2--3--|--2--------3--2--0--|--3----0----3----|--------0-----------|
--0---------------|--0--0--3-----------|--1----1---------|-----1--------------|
--0---------------|--------------------|--0--------------|--0-----------------|


  E  E  E  E  E  E     E  E  E  E  E  E     E  E  E  Q.        E  Q.     Q     
-----0-----------0--|--------------------|------------------|-----------------|
--------3--1--3-----|--------------3--1--|--1---------------|-----1-----------|
--------------------|-----0--2-----------|--2---------------|--2--------------|
--------0--3--0--3--|--3-----0-----3--0--|--2-----2---------|--2---------2----|
-----0--------------|-----0-----0--------|-----0-----0------|--3--------------|
--0-----------------|--0-----------------|--2---------------|--2--------------|


  H.              Q.     Q    E     E  E  E  E  E  E     E  E  E  E  Q     
---------------|--------------0--|--1-----------------|--0----------------|
---------------|-----------------|--------------------|-----3-------------|
---------------|-----------------|--------------------|-------------------|
--0------------|--0------L-------|--------3-----2-----|--0-----------0----|
--2------------|--1------L-------|-----0-----0-----0--|-----0-----0-------|
--0------------|--0------L-------|--0-----------------|--------0----------|


  E  E  E  E  E  E     E  E  E  E  Q       H        E  E      Q    Q    E  E   
--------------------|-------------------|-----------------|--13---------------|
--------------------|-------------------|-----------------|-------------------|
--------------------|-------------------|-----------------|--10---------------|
--3-----3-----2-----|--0-----------0----|--2--------------|---0----0----0-----|
-----0-----0-----0--|-----0-----0-------|--1-----------0--|----------------0--|
--0-----------------|--------0----------|-----------0-----|-------------------|


   H        Q        E  E  Q    Q       E  E  Q    Q       E  E  E  E  E  E   
--12--------8----|--10---------------|--------0----1----|--------------------|
-----------------|-------------------|--------1----3----|--------3-----3-----|
---9--------7----|---7---------------|------------------|-----2-----2-----2--|
---0-------------|---------0----0----|--0-----0---------|--3-----------------|
-----------------|------0------------|-----0------------|--------------------|
-----------------|---0---------------|------------------|--0-----0-----0-----|


  E  E  E  E  E  E     E  E  E  E  E  E     E  S S E  E  E  E   
-----------0--1-----|--1-----------1-----|--0----1-0-----------|
--------------------|--3-----------3-----|-----3------3-----3--|
-----2-----2-----2--|-----2-----2-----2--|--2------------2-----|
--3-----------------|--------------------|---------------------|
--------------------|--------------------|---------------------|
--0-----0-----0-----|--0-----0-----0-----|---------------------|


  E  E  E  E  E  E     E  E  E  E  E  E     E  E  E  E  E  E   
--0-----------------|--------------------|--1-----------0-----|
--------1-----1-----|--------------------|--------------------|
-----2-----2-----2--|-----2-----2-----2--|-----2-----2-----2--|
--2-----2-----2-----|--2-----2-----2-----|--2-----2-----2-----|
--3-----3-----3-----|--3-----3-----3-----|--3-----3-----3-----|
--------------------|--------------------|--------------------|


  E  E  E  E  E  E     E  E  E  E  E  E     E  E  E  E  E  E   
--------------------|--------------------|-----------0--1-----|
--------3-----1-----|--------3-----3-----|--------------------|
-----2-----2-----2--|-----2-----2-----2--|-----2-----2-----2--|
--------------------|--3-----3-----3-----|--3-----3-----3-----|
--3-----3-----3-----|--------------------|--------------------|
--------------------|--0-----0-----0-----|--0-----0-----0-----|


  E  E  E  E   E  E     E  E  E  E  E  E     E  E  E  E  E  E   
--8-----------10-----|--5-----------5-----|--------------------|
---------------------|--------6-----------|--3-----1-----1-----|
---------------------|-----2-----2-----2--|-----2-----2-----2--|
-----7-----7------7--|--------------------|--------------------|
--8-----8------8-----|--------------------|--3-----3-----3-----|
--0-----0------0-----|--0-----0-----0-----|--------------------|


  E  E  E  E  E  E      E  E  E  E  E  E     E  E  E  E  E  E   
--------------------|---8-----------------|--------------------|
--1--------3--------|--10-----------------|--------------------|
-----2-----2-----2--|---------------------|-----0-----0-----0--|
--------------------|------7-----7-----7--|--2-----2-----2-----|
--3-----3-----3-----|---7-----7-----7-----|--3-----3-----3-----|
--------------------|---------------------|--------------------|


  E  E  E  E  E  E     E  E  Q     E  E     H.              E  Q.     Q     
-----0-----------0--|--1--3--5----10--8--|--8------------|------------0----|
--------3--1--3-----|--------------------|---------------|-----1-----------|
--L-----------------|--------------------|---------------|--2--------------|
--------------------|--------------------|---------------|--2--------------|
-----0--------------|--------------------|---------------|--3--------------|
--------------------|--------0-----------|---------------|--2--------------|


  H.              H.              H.              H.            
---------------|---------------|--3------------|--5------------|
--3------------|---------------|--1------------|--3------------|
---------------|---------------|---------------|---------------|
--0------------|--0------------|--0------------|--0------------|
--2------------|--1------------|--0------------|---------------|
--0------------|--0------------|--0------------|--5------------|


  H        Q       H.               H        Q       E  E  E  E  E  E   
-----------6----|---------------|--10--------5----|--5-----------6-----|
-----------3----|---------------|--10--------3----|--3-----3-----------|
----------------|--2------------|-----------------|-----2-----2-----2--|
--L-------------|--0------------|---0-------------|--0-----------------|
----------------|--0------------|---0-------------|--------------------|
--L-------------|---------------|-----------------|--------------------|


  E  E  E  E  E  E     E  E  E  E  E  S S    E  E  E  E  E  E   
--5-----6--5--3--6--|--5-----1--------0-1-|--3-----0--------3--|
--------3-----3-----|--------3-----3------|--------1-----1-----|
-----2-----2-----2--|-----2-----2-----2---|-----0-----0-----0--|
--0-----------------|--0------------------|--------------------|
--------------------|---------------------|--3-----------------|
--------------------|---------------------|--------------------|


  E  E  E  E  E  E     E  E  E  E  E  E     E  E  Q    E  E   
--1-----------------|--0-----1--0--------|--------5----5-----|
--------------------|--------------3--1--|--3----------------|
--------3-----3-----|--------2-----2-----|--------0----0-----|
-----3-----3-----3--|-----2-----2-----2--|-----0----------0--|
--1-----------------|--0-----------------|-------------------|
--------------------|--------------------|--5----------------|


  S  S E   Q    Q        E   E  E  E  Q       H        E  E   
--8-10----10---------|---8------0----------|--5-----------0--|
---------------------|--10---------1-------|--6--------L-----|
-----------7----3----|---9------------0----|--7--------L-----|
-------0-------------|---------------------|--0--------L-----|
---------------------|---------------------|-----------------|
--5------------------|--10--10-------------|-----------------|


  E  E  Q    E  E     E  E  Q    Q       H.              H.             
--3----------1--0--|--1----------0----|---------------|---------------||
--5--3--1----3-----|-----3-------1----|--3------------|--L------------||
--5----------3-----|--3-----3---------|--3------------|--L------------||
-------------0--2--|--3-----0---------|---------------|---------------||
-------------------|--------1---------|---------------|---------------||
-------------------|------------------|---------------|---------------||




Duration Legend
---------------
W - whole
H - half
Q - quarter
E - 8th
S - 16th
T - 32nd
X - 64th
. - note dotted
|-n-|  - n-tuplets


Tablature Legend
----------------
L - tied note
x - dead note
g - grace note
(n) - ghost note
> - accentuded note
NH - natural harmonic
AH - artificial harmonic
TH - tapped harmonic
SH - semi harmonic
PH - pitch harmonic
h - hammer on
p - pull off
b - bend
br - bendRelease
pb - preBend
pbr - preBendRelease
brb - bendReleaseBend
\n/ - tremolo bar dip
\n - tremolo bar dive
-/n - tremolo bar Release up
/n\ - tremolo bar inverted dip
/n - tremolo bar return
-\n - tremolo bar Release down
S - shift slide
s - legato slide
/ -  slide into from below or out of upwards
\ -  slide into from above or out of downwards
~ - vibrato
W - wide vibrato
tr - trill
TP - tremolo picking
T - tapping
S - slap
P - pop
< - fade in
^ - brush up
v - brush down
Login or Register to remove this ad.