Ads

A Nearly Peaceful Place (The Witcher 2: Assassins of Kings) Guitar Tab

Submitted: Dec 01, 2015 by IkuinenOnni

5
Average: 5 (5 votes)
Download | Listen
Game: The Witcher 2: Assassins of Kings
Composer(s): Marcin Przybyłowicz, Adam Skorupa, Krzysztof Wierzynkiewicz, Michał Cielecki
Style: Arrangement, Fingerstyle

AutoScroll: Slow | Medium | Fast
                            A Nearly Peaceful Place                             


Nylon Guitar
     W                   H.           Q       H        E  Q.      
E||--3----------------|--L------------2----|--L--------L--5------|
B||--5----------------|--L-----------------|--------------3------|
G||--4----------------|--L-----------------|--------------2------|
D||--5----------------|--L------------0----|--L--------L---------|
A||-------------------|--------------------|---------------------|
E||-------------------|--------------------|---------------------|


  Q.     H        E     W                   Q    H.            
--L------0--------L--|--L----------------|--L-----------------|
--L------1--------L--|--L----------------|--L----3------------|
--L------0--------L--|--L----------------|--L----0------------|
---------------------|-------------------|--------------------|
---------------------|-------------------|-------3------------|
---------------------|-------------------|--------------------|


  S H        E.  E  E     W                   H        E  Q.      
--------------------7--|--L----------------|--L-----------8------|
--L-----------------0--|--L----------------|--L--------L--0------|
--L-0--------L---L--0--|--L----------------|--L-----------0------|
--------------------0--|--L----------------|--L--------L--0------|
--L--------------------|-------------------|---------------------|
-----------------------|-------------------|---------------------|


  Q.     E  H           Q    S H        E.     W                 
--L------L-----------|---------2--------L---|--L----------------|
--L---------3--------|--L----L-3--------L---|--L----------------|
--L---------0--------|--L----L-2--------L---|--L----------------|
--L---------0--------|--L----L-4--------L---|--L----------------|
---------------------|---------5--------L---|--L----------------|
---------------------|----------------------|-------------------|


  H.           E.  S    H        E.  Q    S    W                 
--7------------L---2-|--L--------L---3----L-|--L----------------|
--3------------------|---------------0----L-|--L----------------|
---------------------|---------------0----L-|--L----------------|
-------------------0-|--L--------L---2----L-|--L----------------|
--5------------------|----------------------|-------------------|
---------------------|----------------------|-------------------|


  H        H           Q.     H        E     E  H.           E   
--L--------2--------|--L------5--------L--|--L--0------------L--|
--L--------0--------|--L------0--------L--|--L--3------------L--|
--L-----------------|---------------------|-----0------------L--|
--L--------0--------|--L------0--------L--|--L------------------|
--------------------|---------------------|-----3------------L--|
--------------------|---------------------|---------------------|


  H.           E  E     H.           Q       H        E  Q.      
--L------------L-----|---------------3----|--L--------L--7------|
--L------------L--3--|--L-----------------|--------------0------|
--L---------------0--|--L-----------------|--------------0------|
------------------2--|--L-----------------|--------------0------|
--L------------L-----|--------------------|---------------------|
---------------------|--------------------|---------------------|


  W                   Q.     H        E     Q     H         E.   S  
--L----------------|--L------8--------L--|--L----10---------L---11-|
--L----------------|--L------0-----------|--------0--------------7-|
--L----------------|--L------0-----------|--------0----------------|
--L----------------|--L------0-----------|--------0--------------9-|
-------------------|---------------------|-------------------------|
-------------------|---------------------|-------------------------|


   W                    H.            Q        H         E   Q.      
---L----------------|---L------------12----|---L---------L--14------|
---L----------------|---L------------------|------------------------|
--------------------|----------------------|------------------------|
---L----------------|---L------------------|------------------------|
--------------------|----------------------|------------------------|
--------------------|----------------------|------------------------|


   Q     E.   H         S     W                    E.   H.            S  
---L-----L---17---------L-|---L----------------|---L---15-------------L-|
--------------------------|--------------------|------------------------|
--------------------------|--------------------|------------------------|
--------------------------|--------------------|------------------------|
--------------0---------L-|---L----------------|------------------------|
--------------0---------L-|---L----------------|---L----L---------------|


   S  H.            E.      W                    H         E   Q.      
---L-14------------15---|---L----------------|---L---------L--14------|
--------------------0---|---L----------------|---L---------L---L------|
------------------------|--------------------|------------------------|
-------------------14---|---L----------------|---L--------------------|
------------------------|--------------------|------------------------|
------------------------|--------------------|------------------------|


   H         H            Q     S H        E.     W                 
---L---------L--------|------------------------|-------------------|
------------15--------|---L-----L-8--------L---|--L----------------|
----------------------|-----------9--------L---|--L----------------|
----------------------|------------------------|-------------------|
----------------------|------------------------|-------------------|
----------------------|-----------8--------L---|--L----------------|


   H.            S  E.      H         E.   Q     S     W                 
--12-------------L-12---|---L---------L---12-----L-|---L----------------|
------------------------|-----------------12-----L-|---L----------------|
------------------------|--------------------------|--------------------|
-------------------10---|---L---------L------------|--------------------|
------------------------|--------------------------|--------------------|
---8-------------L--L---|------------------0-----L-|---L----------------|


   Q.      S  H         S     Q     S  H         E.      S  H.            E.   
---L-------L-10---------L-|---L-----L-14---------L---|---L-12-------------L---|
---L-------L--------------|-----------13---------L---|---L-12-------------L---|
--------------------------|-----------11---------L---|---L--------------------|
--------------------------|--------------------------|------------------------|
--------------------------|--------------------------|------------------------|
---L-------L--------------|--------------------------|------------------------|


   H         H            Q     S  H         E.      E.   H.            S  
---L--------19--------|---L-----L-14---------L---|---L---15-------------L-|
---L------------------|--------------------------|------------------------|
----------------------|--------------------------|------------------------|
----------------------|--------------------------|------------------------|
----------------------|--------------------------|------------------------|
----------------------|--------------------------|------------------------|


  W                   Q.     Q.     Q       H        H         
--0----------------|--L------------------|--------------------|
--0----------------|--L------0-----------|--------------------|
-------------------|----------------2----|--L-----------------|
--2----------------|--L------------------|-----------4--------|
-------------------|---------------------|--------------------|
--0----------------|--L------------------|--------------------|


  W                   H        E  Q.        W                 
-------------------|--------------7------|--5----------------|
-------------------|---------------------|-------------------|
--0----------------|--L--------L--0------|-------------------|
-------------------|---------------------|--4----------------|
-------------------|---------------------|-------------------|
-------------------|---------------------|-------------------|


  H        H           W                   W                  
--------------------|-------------------|-------------------||
--7--------8--------|--L----------------|-------------------||
--------------------|-------------------|-------------------||
--------------------|-------------------|-------------------||
--5--------7--------|--L----------------|-------------------||
--------------------|-------------------|-------------------||




Duration Legend
---------------
W - whole
H - half
Q - quarter
E - 8th
S - 16th
T - 32nd
X - 64th
. - note dotted
|-n-|  - n-tuplets


Tablature Legend
----------------
L - tied note
x - dead note
g - grace note
(n) - ghost note
> - accentuded note
NH - natural harmonic
AH - artificial harmonic
TH - tapped harmonic
SH - semi harmonic
PH - pitch harmonic
h - hammer on
p - pull off
b - bend
br - bendRelease
pb - preBend
pbr - preBendRelease
brb - bendReleaseBend
\n/ - tremolo bar dip
\n - tremolo bar dive
-/n - tremolo bar Release up
/n\ - tremolo bar inverted dip
/n - tremolo bar return
-\n - tremolo bar Release down
S - shift slide
s - legato slide
/ -  slide into from below or out of upwards
\ -  slide into from above or out of downwards
~ - vibrato
W - wide vibrato
tr - trill
TP - tremolo picking
T - tapping
S - slap
P - pop
< - fade in
^ - brush up
v - brush down
Login or Register to remove this ad.

1 comment on A Nearly Peaceful Place

Instant fav.

5

Instant fav.